OLD MAN'S CHILD - WHAT MALICE EMBRACE
Tabbed: Esa Mikkola (Finland)
Standard tuning
Palm-muted notes: ..........

Intro (Acoustic) (Not sure about the end but it sounds ok)
|--------------------------------------------------------|
|--------------------------------------------------------|
|-----4---2----------5---4---------4---2---------4-5-4---|
|---2---5---4-----/7---7---5-----2---5---4-----4---------|
|--------------------------------------------2-----------|
|-0-------------0--------------0-------------------------|
Then same thing with distortion

Verse riff
|----------------------------------------------------------------------------------|
|----------------------------------------------------------------------------------|
|-----------4444------5555-4444-2222---------------------------4444-2222-----------|
|------2222------2222----------------5555-------4444-5555-4444-----------5555-4444-|
|------------------------------------------2222------------------------------------|
|-0000-----------------------------------------------------------------------------|

Then this
|---------------------------------|
|---------------------------------|
|---------------------------------|
|-2---3---2---4----2---3---2---4--|
|-2---3---2---4----2---3---2---4--|
|-0---1---0---2----0---1---0---2--|

Chorus (This is how I would play it. It could be that they don't
use palm-muted at all. Play it like you want.)
|-------------------------------------------------------------------------|
|-------------------------------------------------------------------------|
|------------------------------------------------------7--5-5-------------|
|-2------2------3---2------2------5---2------2------3--7--5-5-----3-3-----|
|-2------2------3---2------2------5---2------2------3--5--3-3-333-3-3-----|
|-0-0000-0-0000-1---0-0000-0-0000-3---0-0000-0-0000-1-------------1-1-111-|
.... .... .... .... .... .... ... ...
Then verse again
Then verse riff but played higher like this:
|---------------------------------------------------------------------------------|
|-----------5555------6666-5555-3333--------------------------5555-3333-----------|
|------2222------2222----------------5555------4444-5555-4444-----------5555-4444-|
|-----------------------------------------2222------------------------------------|
|-0000----------------------------------------------------------------------------|
|---------------------------------------------------------------------------------|
Riff 1
|----------------------------------------------------------------------|
|----------------------------------------------------------------------|
|------------2-0h2p0-----7---5---4---------------4-2h4p2p0--7---5---4--|
|---2-4-5-------------4--7---5---4------2-4-5---------------7---5---4--|
|---------3--------------5---3---2------------3-------------5---3---2--|
|-0----------------------5---3---2----0---------------------5---3---2--|

Solo (Use long delay effect with this great solo. Listen to record to
get the right delay time.)
|------------------------------------------------------------------|
|------------------------------------------------------------------|
|-4/9---11-12---5----/14-12-11---12-14---17-12-17-12--16-11-16----|
|---------------------------------------------------------------13-|
|------------------------------------------------------------------|
|------------------------------------------------------------------|
|-------------12--15-14h15p14-12--------------------------|
|----------12--------------------13----15-13h15p13-12-----|
|--9-11-12--------------------------------------------14--|
|---------------------------------------------------------|
|---------------------------------------------------------|
|---------------------------------------------------------|
Here put long delay off
|-----------------------------------------------------10------------------|
|-------12------------------------12-8---8--12-8---8-----8---8--10-8-7-8--|
|-12-14----14-12-11----------11--------9---------9---------9--------------|
|-------------------14-13-14----------------------------------------------|
|-------------------------------------------------------------------------|
|-------------------------------------------------------------------------|

|------------------------------7-----------------------------------|
|-10-7---7--10-7---7--8-5---5----7---------------------------------|
|------7---------7--------5--------8-----9-9h11h12--11-11h12h14----|
|------------------------------------9-----------------------------|
|------------------------------------------------------------------|
|------------------------------------------------------------------|

|----------------------------------------------------|
|--------------------------------15-13h15p13-12------|
|-12-12h14h16--14-14h16h17--17------------------14--|
|----------------------------------------------------|
|----------------------------------------------------|
|----------------------------------------------------|

|--8h10h12----------------------------------|
|----------8h10h12--------------------------|
|------------------9h11h12-8h9h11-9-8-9ah--|
|-------------------------------------------|
|-------------------------------------------|
|-------------------------------------------|

Ending riff
|------------------------------------------------------------------------------|
|-----------55555555-------6666-33333333-----------55555555------5555----------|
|------2222-----------------------------------2222--------------------44444444-|
|--------------------3333-----------------------------------2222---------------|
|-0000-----------------------------------0000----------------------------------|
|------------------------------------------------------------------------------|




Ваше мнение



Капча