OLD MAN'S CHILD - TOWARDS ETERNITY
Tabbed:Esa Mikkola (Finland)
.... palm-mute
Standard tuning
Intro (Here are just the chords.They are all tremolo picked)
|------------------------|
|------------------------|
|------------------------|
|-4--5-4--5--7--8-7--5-4-|
|-4--5-4--5--7--8-7--5-4-|
|-2--3-2--3--5--6-5--3-2-|
Riff 1
|----------------------------------------------------------------------|
|----------------------------------------------------------------------|
|----------------------------------------------------------------------|
|-4--4---6---7--5-5-4--4---6---7--8-8-7--7---9---10--8-8-7--7---9---10-|
|-4----4---5----5-5-4----4---5----8-8-7----7---8-----8-8-7----7---8----|
|-2-------------3-3-2-------------6-6-5--------------6-6-5-------------|
Riff 2
|-------------------------------------------------------------------------------------------------|
|-------------------------------------------------------------------------------------------------|
|-------------------------------------------------------------------------------------------------|
|-------------------------------------------------5-5-5-5-5-5-6-6-6-6-6-6-5-5-5-5-5-5-6-6-6-6-6-6-|
|-7-7-7-7-7-7-8-8-8-8-8-8-7-7-7-7-7-7-8-8-8-8-8-8-3-3-3-3-3-3-3-3-3-3-3-3-3-3-3-3-3-3-3-3-3-3-3-3-|
|-5-5-5-5-5-5-5-5-5-5-5-5-5-5-5-5-5-5-5-5-5-5-5-5-------------------------------------------------|
Riff 3
|-------------------------------------------------------------------------|
|-------------------------------------------------------------------------|
|-------------------------------------------------------------------------|
|-3-3-3-3-3-3-3-3-3-3-3-3-5-5-5-5-5-5-2-2-2-2-2-2-------------------------|
|-3-3-3-3-3-3-3-3-3-3-3-3-5-5-5-5-5-5-2-2-2-2-2-2-7-7-7-7-7-7-8-8-8-8-8-8-|
|-1-1-1-1-1-1-1-1-1-1-1-1-3-3-3-3-3-3-0-0-0-0-0-0-5-5-5-5-5-5-5-5-5-5-5-5-|
Riff 4
|----------------------------------------------------|
|----------------------------------------------------|
|----------------------------------------------------|
|-7-7-76/7---7-7-76/7---7-7-76/7---32/3---65/6--|
|-7-7-76/7---7-7-76/7---7-7-76/7---32/3---65/6--|
|-5-5-54/5---5-5-54/5---5-5-54/5---1/1---43/4--|
. . . . . .




Ваше мнение



Капча