Artist: Old Man's Child
Title: Phantoms of mortem tales
Album: Revelation 666
Tabbed by elc ([email protected];[email protected])
Intro part
Guitar 1
e|-------------------------------------------------|
B|-------------------------------------------------|
G|-------------------------------------------------|
D|-------------------------------------------------|
A|-3-----------------------3-----------------4-----|
E|-1-----------------------1-----------------2-----|
Guitar 2
e|-------------------------------------------------|
B|-------0-----1-----------------0-----1-----------|
G|---------0-----------------------0---------------|
D|-----------3-------3---------------3-------3-----|
A|-3-----------------------3-----------------------|
E|-1-----------------------1-----------------------|
Guitar 1
e|-------------------------------------------------|
B|-------------------------------------------------|
G|-------------------------------------------------|
D|-------------------------------------------------|
A|-3-----------------------3-----------------4-----|
E|-1-----------------------1-----------------2-----|
Guitar 2
e|-------------------------------------------------|
B|-------0-----1-----------------0-----1-----------|
G|---------0-----------------------0---------------|
D|-----------3-------3---------------3-------3-----|
A|-3-----------------------3-----------------------|
E|-1-----------------------1-----------------------|
Guitar 1
e|-------------------------------------------------|
B|-------------------------------------------------|
G|-------------------------------------------------|
D|-------------------------------------------------|
A|-3-----------------------3-----------------4-----|
E|-1-----------------------1-----------------2-----|
Guitar 2
e|-------------------------------------------------|
B|-------0-----1-----------------0-----1-----------|
G|---------0-----------------------0---------------|
D|-----------3-------3---------------3-------3-----|
A|-3-----------------------3-----------------------|
E|-1-----------------------1-----------------------|
Guitar 1
e|-------------------------------------------------|
B|-------------------------------------------------|
G|-------------------------------------------------|
D|-------------------------------------------------|
A|-3-----------------------3-----------------4-----|
E|-1-----------------------1-----------------2-----|
Guitar 2
e|-------------------------------------------------|
B|-------0-----1-----------------0-----1-----------|
G|---------0-----------------------0---------------|
D|-----------3-------3---------------3-------3-----|
A|-3-----------------------3-----------------------|
E|-1-----------------------1-----------------------|
Guitar 1
e|-------------------------------------------------|
B|-------------------------------------------------|
G|-------------------------------------------------|
D|-------------------------------------------------|
A|-----2-----------1-----------2-----------3-------|
E|-0-----------0-----------0-----------0-----------|
Guitar 2
e|-------------------------------------------------|
B|-------------------------------------------------|
G|-----4-----------3-----------4-----------5-------|
D|-------------------------------------------------|
A|-------------------------------------------------|
E|-0-----------0-----------0-----------0-----------|
Guitar 1
e|-------------------------------------------------|
B|-------------------------------------------------|
G|-------------------------------------------------|
D|-------------------------------------------------|
A|-----2-----------1-----------2-----------3-------|
E|-0-----------0-----------0-----------0-----------|
Guitar 2
e|-------------------------------------------------|
B|-------------------------------------------------|
G|-----4-----------3-----------4-----------5-------|
D|-------------------------------------------------|
A|-------------------------------------------------|
E|-0-----------0-----------0-----------0-----------|
Guitar 1
e|-----------------------------------------------------------------|
B|-----------------------------------------------------------------|
G|-----------------------------------------------------------------|
D|-----------------------------------------------------------------|
A|-3---------------------------------------------------------------|
E|-1---------------------------------------------------------------|
Guitar 2
e|-----------------------------------------------------------------|
B|-----------------------------------------------------------------|
G|-5-5-5-4-4-4-5-5-5-4-4-4-5-5-4-4-5-5-5-4-4-4-5-5-5-4-4-4-5-5-4-4-|
D|-----------------------------------------------------------------|
A|-----------------------------------------------------------------|
E|-----------------------------------------------------------------|
Guitar 1
e|-------------------------------------------------|
B|-------------------------------------------------|
G|-------------------------------------------------|
D|-------------------------------------------------|
A|-----2-------1---------------2-------3-----------|
E|-0-------0---------------0-------0---------------|
Guitar 2
e|-------------------------------------------------|
B|-------------------------------------------------|
G|-----4-------3---------------4-------5-----------|
D|-------------------------------------------------|
A|-------------------------------------------------|
E|-0-------0---------------0-------0---------------|
Guitar 1
e|-------------------------------------------------|
B|-------------------------------------------------|
G|-------------------------------------------------|
D|-------------------------------------------------|
A|-----2-------1---------------2-------3-----------|
E|-0-------0---------------0-------0---------------|
Guitar 2
e|-------------------------------------------------|
B|-------------------------------------------------|
G|-----4-------3---------------4-------5-----------|
D|-------------------------------------------------|
A|-------------------------------------------------|
E|-0-------0---------------0-------0---------------|
Guitar 1
e|-------------------------------------------------|
B|-------------------------------------------------|
G|-------------------------------------------------|
D|-------------------------------------------------|
A|-2-----------1-----------2-----------3-----------|
E|-0---0-0-0-0-------------0---0-0-0-0-------------|
pm . . . . . . . .
Guitar 2
e|-------------------------------------------------|
B|-------------------------------------------------|
G|-----4-------3---------------4-------5-----------|
D|-------------------------------------------------|
A|-------------------------------------------------|
E|-0-------0---------------0-------0---------------|
Guitar 1
e|-------------------------------------------------|
B|-------------------------------------------------|
G|-------------------------------------------------|
D|-------------------------------------------------|
A|-2-----------1-----------2-----------3-----------|
E|-0---0-0-0-0-------------0---0-0-0-0-------------|
pm . . . . . . . .
Guitar 2
e|-------------------------------------------------|
B|-------------------------------------------------|
G|-----4-------3---------------4-------5-----------|
D|-------------------------------------------------|
A|-------------------------------------------------|
E|-0-------0---------------0-------0---------------|
Guitar 1
e|-----------------------------------------------------------------|
B|-----------------------------------------------------------------|
G|-----------------------------------------------------------------|
D|-----------------------------------------------------------------|
A|-3---------------------------------------------------------------|
E|-1---------------------------------------------------------------|
Guitar 2
e|-----------------------------------------------------------------|
B|-----------------------------------------------------------------|
G|-5-5-5-4-4-4-5-5-5-4-4-4-5-5-4-4-5-5-5-4-4-4-5-5-5-4-4-4-5-5-4-4-|
D|-----------------------------------------------------------------|
A|-----------------------------------------------------------------|
E|-----------------------------------------------------------------|
Riff 1,
e|---------------------------------|
B|---------------------------------|
G|---------------------------------|
D|---------------------------------|
A|-4-4-3-4-4-4-3-4-7-7-6-4-3-3-2-3-|
E|-2-2-1-2-2-2-1-2-5-5-4-2-1-1-0-1-|
Riff 2,
e|-----------------------------------------------------7-9-----10--|
B|---------------------------------10--9-7-----9-10----------------|
G|-7---6-4---7-6h7-10--9-7---109h10--------------------------------|
D|-----------------------------------------------------------------|
A|-----------------------------------------------------------------|
E|-----------------------------------------------------------------|
e|----------------------------------------------------------------------------------|
B|----------------------------------------------------------------------------------|
G|-7---6-4---7-6h7-10--9-7---109h10------------------------------------9-10---------|
D|---------------------------------10--9-7-----9-10----9-6-----9-10-----------------|
A|----------------------------------------------------------------------------------|
E|----------------------------------------------------------------------------------|
Riff 1, fourth time play it like this
e|---------------------------------|
B|---------------------------------|
G|---------------------------------|
D|---------------------------------|
A|-4-4-3-4-4-4-3-4-7-7-6-4-3-------|
E|-2-2-1-2-2-2-1-2-5-5-4-2-1-------|
pm .
Riff 3
e|-----------------------------------------------------------------|
B|-----------------------------------------------------------------|
G|-----------------------------------------------------------------|
D|-----------------------------------------------------------------|
A|-4---4-4-54-4/5-58-8-8---87/8-5---5-5-54-4/5-3/4---4---43/4-|
E|-2---2-2-32-2/3-36-6-6---65/6-3---3-3-32-2/3-1/2---2---21/2-|
Riff 4, let ring every chord, guitar 2 part is played without using
pick, just hammers and pulls
Guitar 1
e|-----------------------------------------------------------------|
B|-----------------------------------------------------------------|
G|-----------------------------------------------------------------|
D|-----------------------------------------------------------------|
A|-4---------------------------------------------------------------|
E|-2---------------------------------------------------------------|
Guitar 2
e|-----------------------------------------------------------------|
B|-----------------------------------------------------------------|
G|-----------------------------------------------------------------|
D|-----------------------------------------------------------------|
A|-----------------------------------------------------------------|
E|-5p2h4p2h4p2h5p2h4p2h4p2h5p2h4p2h5p2h4p2h4p2h5p2h4p2h4p2h5p2h4p2-|
Guitar 1
e|-----------------------------------------------------------------|
B|-----------------------------------------------------------------|
G|-----------------------------------------------------------------|
D|-----------------------------------------------------------------|
A|-8---------------------------------------------------------------|
E|-6---------------------------------------------------------------|
Guitar 2
e|-----------------------------------------------------------------|
B|-----------------------------------------------------------------|
G|-----------------------------------------------------------------|
D|-----------------------------------------------------------------|
A|-4p1h3p1h3p1h4p1h3p1h3p1h4p1h3p1h4p1h3p1h3p1h4p1h3p1h3p1h4p1h3p1-|
E|-----------------------------------------------------------------|
Guitar 1
e|-----------------------------------------------------------------|
B|-----------------------------------------------------------------|
G|-----------------------------------------------------------------|
D|-----------------------------------------------------------------|
A|-9---------------------------------------------------------------|
E|-7---------------------------------------------------------------|
Guitar 2
e|-----------------------------------------------------------------|
B|-----------------------------------------------------------------|
G|-----------------------------------------------------------------|
D|-----------------------------------------------------------------|
A|-5p2h4p2h4p2h5p2h4p2h4p2h5p2h4p2h5p2h4p2h4p2h5p2h4p2h4p2h5p2h4p2-|
E|-----------------------------------------------------------------|
Guitar 1
e|-----------------------------------------------------------------|
B|-----------------------------------------------------------------|
G|-----------------------------------------------------------------|
D|-----------------------------------------------------------------|
A|-4---------------------------------------------------------------|
E|-2---------------------------------------------------------------|
Guitar 2
e|-----------------------------------------------------------------|
B|-----------------------------------------------------------------|
G|-----------------------------------------------------------------|
D|-----------------------------------------------------------------|
A|-----------------------------------------------------------------|
E|-5p2h4p2h4p2h5p2h4p2h4p2h5p2h4p2h5p2h4p2h4p2h5p2h4p2h4p2h5p2h4p2-|
Guitar 1
e|-----------------------------------------------------------------|
B|-----------------------------------------------------------------|
G|-----------------------------------------------------------------|
D|-----------------------------------------------------------------|
A|-8---------------------------------------------------------------|
E|-6---------------------------------------------------------------|
Guitar 2
e|-----------------------------------------------------------------|
B|-----------------------------------------------------------------|
G|-----------------------------------------------------------------|
D|-----------------------------------------------------------------|
A|-4p1h3p1h3p1h4p1h3p1h3p1h4p1h3p1h4p1h3p1h3p1h4p1h3p1h3p1h4p1h3p1-|
E|-----------------------------------------------------------------|
Guitar 1
e|-----------------------------------------------------------------|
B|-----------------------------------------------------------------|
G|-----------------------------------------------------------------|
D|-----------------------------------------------------------------|
A|-3---------------------------------------------------------------|
E|-1---------------------------------------------------------------|
Guitar 2
e|-----------------------------------------------------------------|
B|-----------------------------------------------------------------|
G|-----------------------------------------------------------------|
D|-----------------------------------------------------------------|
A|-----------------------------------------------------------------|
E|-4p1h3p1h3p1h4p1h3p1h3p1h4p1h3p1h4p1h3p1h3p1h4p1h3p1h3p1h4p1h3p1-|
Guitar 1
e|-----------------------------------------------------------------|
B|-----------------------------------------------------------------|
G|-----------------------------------------------------------------|
D|-----------------------------------------------------------------|
A|-7---------------------------------------------------------------|
E|-5---------------------------------------------------------------|
Guitar 2
e|-----------------------------------------------------------------|
B|-----------------------------------------------------------------|
G|-----------------------------------------------------------------|
D|-----------------------------------------------------------------|
A|-3p0h2p0h2p0h3p0h2p0h2p0h3p0h2p0h3p0h2p0h2p0h3p0h2p0h2p0h3p0h2p0-|
E|-----------------------------------------------------------------|
Guitar 1
e|-----------------------------------------------------------------|
B|-----------------------------------------------------------------|
G|-----------------------------------------------------------------|
D|-----------------------------------------------------------------|
A|-2---------------------------------------------------------------|
E|-0---------------------------------------------------------------|
Guitar 2
e|-----------------------------------------------------------------|
B|-----------------------------------------------------------------|
G|-----------------------------------------------------------------|
D|-----------------------------------------------------------------|
A|-----------------------------------------------------------------|
E|-3p0h2p0h2p0h3p0h2p0h2p0h3p0h2p0h3p0h2p0h2p0h3p0h2p0h2p0h3p0h2p0-|
Riff 5
e|-----------------------------------------------------------------|
B|-----------------------------------------------------------------|
G|-----------------------------------------------------------------|
D|-----------------------------------------------------------------|
A|-4-----4-----4---4-----4-----4---8-----8-----8---8-----8-----8---|
E|-2-22222-22222-222-22222-22222-226-66666-66666-666-66666-66666-66|
pm .... .... .. .... .... .. .... .... .. .... .... ..
e|-----------------------------------------------------------------|
B|-----------------------------------------------------------------|
G|-----------------------------------------------------------------|
D|-----------------------------------------------------------------|
A|-9-----9-----9---9-----9-----9---4-----4-----4---4-----4-----4---|
E|-7-77777-77777-777-77777-77777-772-22222-22222-222-22222-22222-22|
pm .... .... .. .... .... .. .... .... .. .... .... ..
e|-----------------------------------------------------------------|
B|-----------------------------------------------------------------|
G|-----------------------------------------------------------------|
D|-----------------------------------------------------------------|
A|-8-----8-----8---8-----8-----8---3-----3-----3---3-----3-----3---|
E|-6-66666-66666-666-66666-66666-661-11111-11111-111-11111-11111-11|
pm .... .... .. .... .... .. .... .... .. .... .... ..
e|-----------------------------------------------------------------|
B|-----------------------------------------------------------------|
G|-----------------------------------------------------------------|
D|-----------------------------------------------------------------|
A|-7-----7-----7---7-----7-----7---2-----2-----2---2-----2-----2---|
E|-5-55555-55555-555-55555-55555-550-00000-00000-000-00000-00000-00|
pm .... .... .. .... .... .. .... .... .. .... .... ..
Riff 6, guitar 2 plays it while guitar 1 continues with riff 5,
all those 107 should be played as 10p7; I didn't write it to keep
the correct timing in the tab.Chords in brackets () are just to show
when to play each part.
e|-----------------------------------------------------------------|
B|-107-7-7-9p7-7-7-107-7-7-9p7-7-7-107-7-7-9p7-7-7-107-7-7-9p7-7-7-|
G|-----------------------------------------------------------------|
D|-----------------------------------------------------------------|
A|-(4)-------------------------------------------------------------|
E|-(2)-------------------------------------------------------------|
e|-9p6-6-6-8p6-6-6-9p6-6-6-8p6-6-6-9p6-6-6-8p6-6-6-9p6-6-6-8p6-6-6-|
B|-----------------------------------------------------------------|
G|-----------------------------------------------------------------|
D|-----------------------------------------------------------------|
A|-(8)-------------------------------------------------------------|
E|-(6)-------------------------------------------------------------|
e|-107-7-7-9p7-7-7-107-7-7-9p7-7-7-107-7-7-9p7-7-7-107-7-7-9p7-7-7-|
B|-----------------------------------------------------------------|
G|-----------------------------------------------------------------|
D|-----------------------------------------------------------------|
A|-(9)-------------------------------------------------------------|
E|-(7)-------------------------------------------------------------|
e|-----------------------------------------------------------------|
B|-107-7-7-9p7-7-7-107-7-7-9p7-7-7-107-7-7-9p7-7-7-107-7-7-9p7-7-7-|
G|-----------------------------------------------------------------|
D|-----------------------------------------------------------------|
A|-(4)-------------------------------------------------------------|
E|-(2)-------------------------------------------------------------|
e|-----------------------------------------------------------------|
B|-----------------------------------------------------------------|
G|-3-----------------------2---3---5---------------------5^----5---|
D|-----------------------------------------------------------------|
A|-----------------------------------------------------------------|
E|-----------------------------------------------------------------|
e|-----------------------------------------------------------------|
B|-----------------------------------------------------------------|
G|-3-------------------------------1-------------------------------|
D|-----------------4-------------------------------3---------------|
A|-----------------------------------------------------------------|
E|-----------------------------------------------------------------|
e|-----------------------------------------------------------------|
B|-----------------------------------------------------------------|
G|-------------------------------------------------------7----9----|
D|-10----7-------------------------------7----10---10--------------|
A|------------7---------------7----7-------------------------------|
E|-----------------8-----7-----------------------------------------|
e|-----------------------------------------------------------------|
B|-----------------------------------------------------------------|
G|-7~--------------------------------------------------------------|
D|-------------------------10--9---7~--------------6---7---9---6---|
A|-----------------------------------------------------------------|
E|-----------------------------------------------------------------|
This is the last note played by guitar 2 above the begining of riff 3;
It is hard to move that fast to this fret but I don't have any ideas how to
make that sound somewhere else.It is probably natural harmonic.
e|-/21-------------------------------------------------------------|
B|-----------------------------------------------------------------|
G|-----------------------------------------------------------------|
D|-----------------------------------------------------------------|
A|-----------------------------------------------------------------|
E|-----------------------------------------------------------------|
Riff 3
Riff 1
Riff 2
End with this:
e|-----------------------------------------------------------------|
B|-----------------------------------------------------------------|
G|-----------------------------------------------------------------|
D|-----------------------------------------------------------------|
A|-3---3---3---3---3---3---3---3---3---3---3---3---3---3---3---3---|
E|-1---1---1---1---1---1---1---1---1---1---1---1---1---1---1---1---|
pm . . . . . . . . . . . . . . . .




Ваше мнение



Капча