Old Man's Child: My Demonic Figures
Transcription by HeXa ([email protected])
There are mistakes so please send me corrections.
Repeat this.....
e:-----|----------------------------------|
B:-----|----------------------------------|
G:-----|----------------------------------|
D:-----|----------------------------------|
A:15--|0-0-0-0-0-0-0-0-0-0-0-0-0-0-0-0-0-|
E:-----|----------------------------------|
Fill 1
Riff 1 2x |--PALM-MUTE-------|
e:-----------------------------------------------|------------------|
B:-----------------------------------------------|------------------|
G:----------------------9-------------------4-2--|--7-4-------------|
D:-7---10-10-9-9-7-7-10-9-2--9-9-7-7-5--2-6-4-2--|------6-3---------|
A:-7---------------7-10-7-2-------------2-6-2-0--|----------5-2-----|
E:-5---------------5-8----0-------------0-4------|--------------4-1-|
Riff 2 4x
e:-----------------------------------------------------------------|
B:-----------------------------------------------------------------|
G:-----------------------------------------------------------------|
D:---------10-10-9-9-7----------------------9-9-7-7-5--------------|
A:-0-0-0-0---------------------7-7----------------------------2-2--|
E:---------------------5-5-8-8------0-0-0-0-----------0-0-4-4------|
Fill 2
|----PALM-MUTE-----| A Riff 3 4x G
e:------------------|-----------------------------------------------------|
B:------------------|-----------------------------------------------------|
G:-------------4-7--|-----------------------------------------------------|
D:---------3-6------|---10-9-10------10-9-10------5-9-7-9-5--5-9-7-9-5-5--|
A:-----2-5----------|-0---------0--0---------0-0--------------------------|
E:-1-4--------------|-----------------------------------------------------|

Riff 4 2x
A G D C
e:---------------------------------------------------------------------------|
B:---------------------------------------------------------------------------|
G:--------------------------------10-9-10-----5-9-7-9--5-5-------------------|
D:---10-9-10-12---5-9-7-9--5-5--0---------0-0------------------10-9-10-12-10-|
A:-0---------------------------------------------------------0---------------|
E:---------------------------------------------------------------------------|
e:-------------------------------------------|
B:-------------------------------------------|
G:-----------------10-9-10------5-9-7-9--5-5-|
D:--5-9-7-9-5-5--0---------0-0---------------|
A:-------------------------------------------|
E:-------------------------------------------|
Fill 1
Riff 2 2x
Fill 2
Riff 2 2x
Fill 2
Riff 5 6x guitar 2 second time.
Guitar 1
e:----------------------------------------------|
B:----------------------------------------------|
G:----------------------------------------------|
D:-7-7-9-10-------------------------------------|
A:----------8-8-10-12---------------------------|
E:--------------------10-10-12-13--12-12-14-16--|
e:----------------------------------------------|
B:----------------------------------------------|
G:----------------------------------------------|
D:-7-7-9-10-------------------------------------|
A:----------8-8-10-12---------------------------|
E:--------------------10-10-12-13--16-16-17-19--|

Guitar 2
e:-----------------------------------------------|
B:-10-10-12-13-----------------------------------|
G:-------------10-10-12-14--7-7-9-10--9-9-11-13--|
D:-----------------------------------------------|
A:-----------------------------------------------|
E:-----------------------------------------------|
e:-----------------------------------------------|
B:-10-10-12-13------------------------9-9-10-12--|
G:-------------10-10-12-14--7-7-9-10-------------|
D:-----------------------------------------------|
A:-----------------------------------------------|
E:-----------------------------------------------|
under the lyrics:
e:-------|---------------------------------------|
B:-------|---------------------------------------|
G:-9~~---|-2-2-2-2-2-2-2-2-2-2-------------------|
D:-------|-2-2-2-2-2-2-2-2-2-2-------------------|
A:-------|-0-0-0-0-0-0-0-0-0-0-------------------|
E:-------|---------------------------------------|
Riff 2 4x
Riff 3 2x
fill 1
Riff 5




Ваше мнение



Капча