Song: Hominis Nocturna
Band: Old Man's Child
Album: Revelation 666
Tabbed by: C.J. Clark [email protected]

Opener: (x4)
e|---------------------0-0000-0000-0000-000---------------------
B|-0-0000-0000-0000-000-----------------------------------------
G|--------------------------------------------------------------
D|--------------------------------------------------------------
A|--------------------------------------------------------------
E|--------------------------------------------------------------
mmm mmm mmm mmm mmm mmm mmm mm

Riff 1: (x6)
e|------------------------------12-11---12-11----12-11-12-------
B|---9-8---9-8----9-8---9-8--10-------9-------10----------11-12-
G|-7-----9-----10-----9-----------------------------------------
D|--------------------------------------------------------------
A|--------------------------------------------------------------
E|--------------------------------------------------------------

Riff 2: (x4)
e|----------------------------------------------------------------
B|----------------------------------------------------------------
G|----------------------------------------------------------------
D|----------------------------------------------------------------
A|-XX6-X6-X6-X666--XX5-X5-X5-X555--XX5-X5-X5-X555--XX4-X4-X4-X444-
E|----------------------------------------------------------------

Main Riff: (x2)
e|--------------------------------------------------------------
B|--------------------------------------------------------------
G|---7-----10------7---------10-9-------------------------------
D|-----9-7----7-9-----10-9-7------------------------------------
A|--------------------------------------------------------------
E|--------------------------------------------------------------

e|--------------------------------------------------------------
B|--------------------------------------------------------------
G|---7-----10------7-------7-9-10-------------------------------
D|-----9-7----7-9-----10-9--------------------------------------
A|--------------------------------------------------------------
E|--------------------------------------------------------------

Repeat Opener (x4)
Repeat Riff 1 (x4)

Riff 3: (x4)
e|-5-5-5-5-4-45-5-5-5-6-6-6-------------------------------------
B|-7-7-7-7-6-67-7-7-7-8-8-8-------------------------------------
G|-7-7-7-7-6-67-7-7-7-8-8-8-------------------------------------
D|--------------------------------------------------------------
A|--------------------------------------------------------------
E|--------------------------------------------------------------
m m m m m m m m

Solo Stuff, sorry solo's are a bitch

Riff 4: End of Solo (Play fucking insane!!) (x4)
e|-77777-66666-77777-66666-66666-55555-66666--------------------
B|-99999-88888-99999-88888-88888-77777-88888--------------------
G|-99999-88888-99999-88888-88888-77777-88888--------------------
D|--------------------------------------------------------------
A|--------------------------------------------------------------
E|--------------------------------------------------------------

Play Riff 2 Again (x4)
Play Main Riff Again (x2)

Final Note:
e|--------------------------------------------------------------
B|-12/0---------------------------------------------------------
G|--------------------------------------------------------------
D|--------------------------------------------------------------
A|--------------------------------------------------------------
E|--------------------------------------------------------------


Ваше мнение



Капча