OLD MAN'S CHILD - DOOMMAKER
Tabbed : Esa Mikkola (Finland)
Tuning: Standard tuning
I marked all palm-muted notes with these ......
For comments about this tab mail me at
[email protected]
Intro riff
|-------------------------------------------------|
|-------------------------------------------------|
|-------------------------------------------------|
|-------------------------------------------------|
|-------------------------------------------------|
|-5-5-5-3-5-5-5-5-5-1-5-5-5-5-5-0-5-5-4-4-4-2-4-4-|
|----------------------------------------------|
|----------------------------------------------|
|----------------------------------------------|
|----------------------------------------------|
|-------------------------------------5-5-5-6--|
|-5-5-5-3-5-5-5-5-5-1-5-5-5-5-5-0-5-5-3-3-3-4--|
Verse riff is same but its all palm-muted
Chorus
guitar 1
|--------------------------------------------------------|
|--------------------------------------------------------|
|7-------10------------------4-5-6-7--7-------10---------|
|7-------10-------7----7-6-7-4-5-6-7--7-------10-------7-|
|5-------8--------7----7-6-7-2-3-4-5--5-------8--------7-|
|-----------------5----5-4-5---------------------------5-|
guitar 2
|------------------------------------------------------|
|------------------------------------------------------|
|7-9-10--10-12-14------------4-5-6-7--7-9-10--10-12-14-|
|-----------------7----7-6-7---------------------------|
|------------------------------------------------------|
|------------------------------------------------------|
guitar 1
|-----------------------|
|-----------------------|
|7---10-----------------|
|7---10-----10-10-9-----|
|5---8------10-10-9-----|
|-----------8--8--7-----|
guitar 2
|----------|
|----------|
|7-9-10----|
|----------|
|----------|
|----------|
Then play intro riff few times and then verse
Riff 1 (I'm not sure about this)
|----------------------------------------|
|----------------------------------------|
|--------------------7-------------------|
|-----------7-8-7-8--5-8-7-8------7------|
|-7--8-7-8--5----------------------------|
|-5------------------------------------5-|
It goes something like that in the beginning
and in the end it goes like this:
|-----------------------------------------------------------------|
|---------------------------------------------10------10-----10---|
|------------------------------77777777-------9-------9------9----|
|---------------77777777-8-7-8-55555555-8-7-8-7--7777-7-7777-7-77-|
|77777777-8-7-8-55555555------------------------------------------|
|55555555---------------------------------------------------------|
.... .... ..
Then the speaking part (I'm not sure about this either)
|------------------------------|
|------------------------------|
|----------------9-------------|
|-----7-9--79-10-7-7-9---------|
|-7---5-7--57-8----5-7--10-7---|
|-5---------------------8--5---|
Play that few times and then last time play this:
|---------------------------------------------------------|
|---------------------------------------------------------|
|---------------9-----------------------------------------|
|----7-9--79-10-7-7-9---10-8------12-10-------14-12-------|
|-7--5-7--57-8----5-7--------7-8--------8-10--------10-12-|
|-5-------------------------------------------------------|
Then this:
|-----------------------------------------------|
|-----------------------------------------------|
|-----------------------------------------------|
|-----------------------------------------------|
|7----------------------------------6-----------|
|5555555555555555555555555555555555-44444444444-|
................................. ..........
Then play chorus and few times intro riff and that's it




Ваше мнение



Капча