OLD MAN'S CHILD - DEMONICAL POSSESSION
Tabbed: Esa Mikkola (Finland)
[email protected]

standard tuning
Palm-mute: ......
artificial harmonic: ah
Intro
|-----------------------------------|
|-----------------------------------|
|---4---4-5----------4---4-5--------|
|-2---2-----3-2-3--2---2-----3-2tr3-|
|-----------------------------------|
|-----------------------------------|
2nd guitar plays these two chords:
(Listen the cd)
|-----------------------------|
|-----------------------------|
|-----------------------------|
|-2-------3--------2-------3--|
|-2-------3--------2-------3--|
|-0-------1--------0-------1--|

Verse
|-----------------------------------------------------------------|
|-----------------------------------------------------------------|
|-----------------------------------------------------------------|
|----------------------------8ah-------------------------4-4------|
|---7---6---7---9---10---6---------7---6---7---9---10----2-2-2----|
|-0---0---0---0---0----0---0-----0---0---0---0---0----0------0----|
. . . . . . . . . . .
|-------------------------------------------------------------------------|
|-------------------------------------------------------------------------|
|-------------------------------------------------------------------------|
|----------------------------8ah------------------------------------------|
|---7---6---7---9---10---6---------7---6---7----------6h7h9--------7h9h10-|
|-0---0---0---0---0----0---0-----0---0---0---0--6h7h9-------7h9h10--------|
. . . . . . . . . .
Chorus

|----------------------------------------------------------|
|----------------------------------------------------------|
|----------------------------------------------------------|
|-9-----9-------8-----8-------7-----7-------6-----6--------|
|-7-777---77777-6-666---66666-5-555---55555-4-444---44444--|
|----------------------------------------------------------|
... ..... ... ..... ... ..... ... .....
|--------------------------------------------------------------|
|--------------------------------------------------------------|
|--------------------------------------------------------------|
|-9-----9-------8-----8-------7-----7--------------------------|
|-7-777---77777-6-666---66666-5-555---55555--7-7--6-6----------|
|--------------------------------------------5-5--4-4----------|
... ..... ... ..... ... .....
|----------------------------------------------------------|
|----------------------------------------------------------|
|----------------------------------------------------------|
|-9-----9-------8-----8-------7-----7-------6-----6--------|
|-7-777---77777-6-666---66666-5-555---55555-4-444---44444--|
|----------------------------------------------------------|
... ..... ... ..... ... ..... ... .....
|-------------------------------------------------------------------|
|-------------------------------------------------------------------|
|-------------------------------------------------------------------|
|-9-----9-------8-----8-------7-----7-------------------------------|
|-7-777---77777-6-666---66666-5-555---55555--7-7--6-6--2-2-2-2------|
|--------------------------------------------5-5--4-4--0-0-0-0------|
... ..... ... ..... ... ..... . . .
2nd verse
|-----------------------------------------------------------------|
|-----------------------------------------------------------------|
|----------------------------8ah-------------------------4-4------|
|---7---6---7---9---10---6---------7---6---7---9---10----2-2-2----|
|-0---0---0---0---0----0---0-----0---0---0---0---0----0------0----|
|-----------------------------------------------------------------|
. . . . . . . . . . . .
|--------------------------------------------------------------------------|
|--------------------------------------------------------------------------|
|----------------------------8ah-------------------------------------------|
|---7---6---7---9---10---6---------7---6---7-----------6h7h9--------7h9h10-|
|-0---0---0---0---0----0---0-----0---0---0---0---6h7h9-------7h9h10--------|
|--------------------------------------------------------------------------|
. . . . . . . . . .
|----------------------------------------------|
|----------------------------------------------|
|----------4--------3-------------4--------5---|
|-2--------2--------1-4--2--------2--------3-5-|
|-0-000000---000000---2--0-000000---000000---3-|
|----------------------------------------------|
...... ...... ...... ......
then
|----------------------------------------------|
|----------------------------------------------|
|----------------------------------------------|
|----------4--------3-------------4--------5---|
|-2--------2--------1-4--2--------2--------3-5-|
|-0-000000---000000---2--0-000000---000000---3-|
...... ...... ...... ......
solo
|-----------------------8h10h12-12p10p8-------------------------|
|---------------8h10h12-----------------12p10p8-----------------|
|--------7h9h10---------------------------------10p9p7----------|
|-7h9h10-----------------------------------------------10p9p6-7-|
|---------------------------------------------------------------|
|---------------------------------------------------------------|
|-----------------------8h10h12-12--6h7h8-7h8h9-8h9h10-9h10h11-10h11h12-|
|---------------8h10h12--------------------------------------------------|
|--------7h9h10----------------------------------------------------------|
|-7h9h10-----------------------------------------------------------------|
|------------------------------------------------------------------------|
|------------------------------------------------------------------------|
|-11h12h13-12h13h14-13h14h15--15--|
|-----------------------------18b-|
|---------------------------------|
|---------------------------------|
|---------------------------------|
|---------------------------------|
Riff 1
guitar1
|------------------------------------------------------------------|
|------------------------------------------------------------------|
|--------------------------------------------------2---------------|
|-5---7---9---5---10---9---7---9---5---7---9---5-------5---4---5---|
|----------------------------------------------------2---2---2---2-|
|---0---0---0---0----8---8---8---8---0---0---0---0-----------------|
| . . . . . . . . . . . . . . . .
|guitar2
|
|------------------------------------------------------------------|
|------------------------------------------------------------------|
|------------------------------------------------------------------|
|-2---4---5---2---7---5---4---5---2---4---5---2---4----------------|
|-----------------------------------------------------7---6---7----|
|---0---0---0---0---5---5---5---5---0---0---0---0---4---4---4---4--|
. . . . . . . . . . . . . . . .
Ending
|-----------------------|
|-----------------------|
|-----------------------|
|--5-4-5--8-7-8-9------|
|--3-2-3--6-5-6-7------|
|---------6-5-6-7------|




Ваше мнение



Капча