OLD MAN'S CHILD - BEHIND THE MASK
Tabbed: Esa Mikkola (Finland)
All palm-muted notes are marked with these .....
p - pull-off
h - hammer-on
/ - slide
I didn't tab solo because my tremolo bar isn't working right now
and that solo is so short and not even cool.
If you have something to say about this tab , e-mail me at
[email protected]
Intro (drums)
Riff 1
|-------|-----------------------------------------------------------|
|-------|-----------------------------------------------------------|
|-------|-----------------------------------------------------------|
|-------|--------11-10--------6--8---------11-10--------------------|
|-7--8-|--------9--8---------4--6--6-6-6--9--8---------6--8--8-8-8-|
|-5--6-|-6-6-6--------6-6-6---------------------6-6-6--------------|
. . . . . . . . . . . . . . .
|---------------------------------------------|
|---------------------------------------------|
|---------------------------------------------|
|---------------------------------------------|
|9--6--6-6-6--8--4--4-4-4--6--3--3-3-3--7--8--|
|---------------------------------------5--6--|
. . . . . . . . . *Last time stop here and go
to verse
Verse
|-------------------------------------------------|---|-----|
|-------------------------------------------------|---|-----|
|-------------------------------------------------|---|-----|
|-------------------------------------------------|-6-|-----|
|----------9-9-8---------8-8-7---------9-9-8------|-4-|-6/7-|
|6--6-6-6---------6-6-6---------6-6-6---------6-6-|---|-4/5-|
. . . . . . . . . . . . . . . . . . . . . 1st 2nd ending

chorus
|-------------------------------------------------------|
|-------------------------------------------------------|
|----------2--------------------------------------------|
|6----3----2--------------------------------------------|
|6----3----0-----------------9-9-8-8-----------8-8-7-7--|
|4----1----------6--6-6-6-6-----------6-6-6-6-----------|
. . . . . . . . . . . . . . . . .
|-------------|-------------|-----------|
|-------------|-------------|-----------|
|-------------|-------------|-----------|
|-------------|--------6----|-----------|
|---------9-9-|-8--8---4----|-------6/7-|
|6-6-6-6------|-------------|-6--6--4/5-|
. . . . . . . . . .
1st ending 2nd ending
then play riff 1 few times
riff 2
|----|-------------------------------------------------------|
|----|-------------------------------------------------------|
|----|-------------------------------------------------------|
|----|------------------------------------------------10-----|
|1-1-|-4p3p1-0-0-4p3p1-0-0-7-8---4p3p1p-0-0-4p3p1-0-0-8--8---|
|----|---------------------5-6-6----------------------8--6-6-|
riff 3
|-----------------------------------------------------------|
|-----------------------------------------------------------|
|--------------3--------------5-----------------------------|
|3-------------1-1-1-1-1-3-4--3-3-3-3---------3-------------|
|1-1-1-1-4-3-1-------------------------4-3-0--1-1-1-1-1-3-4-|
|-----------------------------------------------------------|
. . . . . . . . . . . .
Then play riff 2 few times
Under solo play verse riff
All riffs are here so that's it. Enjoy!




Ваше мнение



Капча