Ocean Colour Scene: July
INTRO:
e:------------------5-5-57---------------------5--------5-5-57-----------------|
B:-7h8-8--8-----5---7-7-77------------7h8-8-8--5----5---7-7-77-----------------|
G:-7---7--7----6-6--6-6-67------------7---7-7--6---6-6--6-6-67-----------------|
D:-7h9-9--9---5---5-7----8--8-88888---7h9-9-9--5--5---5-7----8-----------------|
A:------------------5----8--8-88888------------7--------5----8-----------------|
E:---------5-------------7--7-77777------------5-------------7-----------------|
RIFT over top
e:-----------------------------------------------------------------------------|
B:-12----------------------------------12--------------------------------------|
G:-----12-11--11-12-14--14-9-8--8-9-11-----12-11--11-12-14--14-9-8-88-9-11-----|
D:-----------------------------------------------------------------------------|
A:-----------------------------------------------------------------------------|
E:-----------------------------------------------------------------------------|
VERSE:
e:------------------5-5-57---------------------5--------5-5-57-----------------|
B:-7h8-8--8-----5---7-7-77------------7h8-8-8--5----5---7-7-77-----------------|
G:-7---7--7----6-6--6-6-67------------7---7-7--6---6-6--6-6-67-----------------|
D:-7h9-9--9---5---5-7----8--8-88888---7h9-9-9--5--5---5-7----8-----------------|
A:------------------5----8--8-88888------------7--------5----8-----------------|
E:---------5-------------7--7-77777------------5-------------7-----------------|
CHORUS:
e:----0----0-------3--------2----------0----0-------3--------2-----------------|
B:----0----2-------2--------3----------0----2-------2--------3-----------------|
G:----0----2-------3--------4----------0----2-------3--------4-----------------|
D:----2----2-------0--------4----------2----2-------0--------4-----------------|
A:----2----0-0-2-4--5-4-3-2-2----------2----0-0-2-4--5-4-3-2-2-----------------|
E:---0--0-3----------------------0h3b-0--0-3-----------------------------------|
RIFT over top to finish
e:-----------------------------------------------------------------------------|
B:-12----------------------------------12--------------------------------------|
G:-----12-11--11-12-14--14-9-8--8-9-11-----12-11--11-12-14--14-9-8-88-9-11-----|
D:-----------------------------------------------------------------------------|
A:-----------------------------------------------------------------------------|
E:-----------------------------------------------------------------------------|




Ваше мнение



Капча