this song should be piss easy to play for n e good guitarist
and this is a great song aswell by ocean colour scene
intro
e---------------------------12-9--10---10-9--7-------------
b-7--8-7----7---7-8-10---10-------12---12-10-8-7-----------
g-7------9--7-9--------------------------------7-----------
d----------------------------------------------------------
a----------------------------------------------------------
e----------------------------------------------------------
play this riff twice for the intro
verse
e-----------------------------------------------------------
b-----------------------------------------------2--2--2-----
g-7-7-7-7-----------------------------7-7-7-7---2--2--2-----
d-7-7-7-7--7-7-7-7--9-9-9-9--5-5-5-5--7-7-7-7---2--2--2-----
a-5-5-5-5--7-7-7-7--9-9-9-9--5-5-5-5--5-5-5-5--0------------
e----------5-5-5-5--7-7-7-7--3-3-3-3-------------3--2--0-2-0
play this twice during the verses

this is the bidge/pre chorus,
e------------------------
b-0--1-0-1-0---2--3-2-3-2
g-0--0-0-0-0---2--2-2-2-2
d-0--1-0-1-0---2--4-2-4-2
a-0--0-0-0-0-------------
e-3--3-3-3-3-------------
play intro,verse then bridge then repeat the intro again


Ваше мнение



Капча