Ocean Colour Scene: hundred mile high city
INTRO:
e:-----------------------------------------------------------------------------|
B:-----------------------------------------------------------------------------|
G:-----------------------------------------------------------------------------|
D:-----------------------------------------------------------------------------|
A:-----5h7-7-----------------------------------5-------------------------------|
E:0-0-0-----0-0-0-h3p0h3-0-0-0-h5p0h5-0-0-0-5h7--------------------------------|
Repeat
INTRO into VERSE:
e:-----------------------------------------------------------------------------|
B:-----------------------------------------------------------------------------|
G:-----------------------------------------------------------------------------|
D:-----------------------------------------------------------------------------|
A:-----5h7-7-----------------------------------5-------5h7-7-------------------|
E:0-0-0-----0-0-0-h3p0h3-0-0-0-h5p0h5-0-0-0-5h7---0-0-0------7-6-5--0----------|
VERSE:
e:-----------------------------------------------------------------------------|
B:-----------------------------------------------------------------------------|
G:-----------------------------------------------------------------------------|
D:-----------------------------------------------------------------------------|
A:-----5h7-7------10-10----------------------5---------------------------------|
E:0-0-0-----0-0-0------0-0-0-h10h10-0-0-0-5h7----------------------------------|
Repeat
e:------------------------------------------8---7---10-----9----8---7----------|
B:-5-5--3-3--7-7--5-5--5-5--3-3--7-7--5-5----8---8----10----10---8---8---------|
G:-5-5--4-4--7-7--6-6--5-5--4-4--7-7--6-6-----9---7-----11----9---9---7-9------|
D:-5-5--5-5--7-7--7-7--5-5--5-5--7-7--7-7--------------------------------------|
A:----------------------------------------------------------------------7------|
E:------3-3-------5-5-------3-3-------5-5--------------------------------------|
SOLO:
e:-----------------------------------------------------------------------------|
B:--------------------------------------------------------------3-----5--------|
G:----------------------------------------------------6---2--24-4-46-6-6-----|
D:----5h7-7-7-7-7-5h7-7-7-7-7-5h7-7-7-7-7-5h7-7-7-7-7--------------------------|
A:----0---0-0-0-0-0---0-0-0-0-0---0-0-0-0-0---0-0-0-0--------------------------|
E:0----------------------------------------------------------------------------|
Flick selector switch up and down with treble=0 and rhythm=10
e:-8p5--------5-5-5----------------5-5-5---------------------------------------|
B:-----5-8b10------8-5-4----------------8-5-4----------------------------------|
G:-----------------------7-7-5-7-5------------7-7-5-7-5------------------------|
D:-----------------------------------------------------------------------------|
A:------------------------------------------------------0----------------------|
E:-----------------------------------------------------------------------------|
e:-----------------------------------------------------------------------------|
B:---------------------------------------------------2-------------------------|
G:---------------------------------------------------2-------------------------|
D:---------------------------------------------------2-------------------------|
A:---------------------------------------------------0-------------------------|
E:-h5p3p0h5p3p0h5p3p0h5p3p0h5p3p0h5p3p0h5p3p0h5p3p0-x--------------------------|
e:-----------------------------------------------------------------------------|
B:-----------------------------------------------------------------------------|
G:-----------------------------------------------------------------------------|
D:-h7p5p0h7p5p0h7p5p0h7p5p0h7p5p0h7p5p0h7p5p0h7p5p0h7p5p0----------------------|
A:-----------------------------------------------------------------------------|
E:-----------------------------------------------------------------------------|
INTRO:
e:-----------------------------------------------------------------------------|
B:-----------------------------------------------------------------------------|
G:-----------------------------------------------------------------------------|
D:-----------------------------------------------------------------------------|
A:-----5h7-7-----------------------------------5-------------------------------|
E:0-0-0-----0-0-0-h3p0h3-0-0-0-h5p0h5-0-0-0-5h7--------------------------------|
Repeat
FILL:
e:---10b12-12-10-7-------------------------------------------------------------|
B:-----------------10-10-8-10b12-----------------------------------------------|
G:- -----------------------------7-7h9-911-9/7h9------------------------------|
D:-----------------------------------------------------------------------------|
A:-----------------------------------------------------------------------------|
E:-----------------------------------------------------------------------------|
e:------------------------------------------8---7---10-----9-------------------|
B:-5-5--3-3--7-7--5-5--5-5--3-3--7-7--5-5----8---8----10----10-----------------|
G:-5-5--4-4--7-7--6-6--5-5--4-4--7-7--6-6-----9---7-----11----9----------------|
D:-5-5--5-5--7-7--7-7--5-5--5-5--7-7--7-7--------------------------------------|
A:-----------------------------------------------------------------------------|
E:------3-3-------5-5-------3-3-------5-5--------------------------------------|
Repeat last bit to fade




Ваше мнение



Капча