The Ocean Blue - "Drifting, Falling"
Chords Used:
F* G6 G* C* C/G
0---0----0----0----0--------1e
0---0----1----0----1--------2b
2---0----0----0----0--------3g
3---0----0----2----2--------4d
3---2----2----3----3--------5a
1---3----3----3----3--------6E
Intro:
|F* G6 F* G6 F* G6|
Verse 1:
|F* |G6 |F* |G6
|You may|find you're all a|lone |
|All aro|und you not a |sound |
|F* |G6 |F* |G6
|Drifting |falling on your | own a|gain
|The walls of|cold and grey su|rround they su|rround
|F* G6 F* G6 F* G6 F* G6|
Verse 2:
|F* |G6 |F* |G6
|You may |find you're by you|reself|
|Friends have|all grown and |gone a|way
|F* |G6 |F* |G6
|Drifting |falling you can't| stop your|self
|The walls of|cold and grey su|rround they su|rround
|F* G6 F* G6 F* G6 F* G6|
Chorus:
|C* |C/G |C* |C/G|G6 |F* |G6
| |Drifting |falling | |watching all your dreams roll|by they roll|by
| |somewhere|out there| |she sees you and she |sighs my my |my my my
|F* G6 F* G6 F* G6 F* G6|
you may find your'e all alone. All around you not a sound.
0--0---------0---------------0----0-------0---------
---0---------0---------------0----0-----0---1-0-----
---2---------0---------------2----0-------------0---
---3---------0---------------3----0---------------0-
---3---------2---------------3----2-----------------
---1---------3---------------1----3-----------------
Drifting falling on your own again
0---0--------0---0---------0---0---------0----0---------
0-0---0------0-0---0-------0-0---0-------0--0---1-0-----
2------------0-------------2-------------0----------0---
3------------0-------------3-------------0------------0-
3------------2-------------3-------------2--------------
1------------3-------------1-------------3--------------
The walls cold and grey surround they surround
Chorus:
|C* |C/G |C* |C/G|G6 |F* |G6
| |Drifting |falling | |watching all your dreams roll|by they roll|by
| |somewhere|out there| |she sees you and she |sighs my my |my my my
|F* G6 F* G6 F* G6 F* G6 F*(let ring)|
This is what I can hear of it. Enjoy!
Reggie Peratrovich
[email protected]




Ваше мнение



Капча