From: [email protected] (Eric Olander)
Between Something and Nothing - The Ocean Blue
Intro riff:
|| ------------7-----|------------7-----|------------7-----|------------7---|
|| 8-----6-----------|8-----6-----------|8-----6-----------|8-----6---------|
||:------------------|------------------|------------------|----------------|
|| ------------------|------------------|------------------|----------------|
|| ------------------|------------------|------------------|----------------|
|| ------------------|------------------|------------------|----------------|
1 . 2 . 3 . 4 . 1 . 2 . 3 . 4 . 1 . 2 . 3 . 4 . 1 . 2 . 3 . 4 .

|------------------|------------------|------------------|----------------- ||
|5-----6-----------|5-----6-----------|5-----6-----------|5-----6---5-6-8-- ||
|------------5-----|------------5-----|------------5-----|-----------------:||
|------------------|------------------|------------------|----------------- ||
|------------------|------------------|------------------|----------------- ||
|------------------|------------------|------------------|----------------- ||
1 . 2 . 3 . 4 . 1 . 2 . 3 . 4 . 1 . 2 . 3 . 4 . 1 . 2 . 3 . 4 .
G
Words that form a sentence
G
Words that form a phrase
C
In a poem
C
or in a letter
G
Could not convey the meaning
G
Of what this man has done
C
In a painting
C
On a canvas
{Intro riff}
G
As the colors fading
G
They dictate my mood
C
Can you see me
C
Are you near me
G
I find myself on canvas
G
I find myself on stage
C
Can you see me
C
Are you near me
D F C
And I long to know you're real
D F C
And I long for you to be a part of me
D F C
I long to know you're real
D F C
And I long for you to be a part of me
| -------------------- | |--------------------|
| -------------------- | |--------------------|
|:10-10--10-10-10--10-:| 3x |10-10--10-10-10--9--|
| -------------------- | |--------------------|
| -------------------- | |--------------------|
| -------------------- | |--------------------|
1 . 2 . 3 . 4 . 1 . 2 . 3 . 4 .

|------------------|------------------|------------------|------------------|
|------------------|-------8----------|------------------|-------8---8---8--|
|10-9--------9---9-|10-9-------10--9--|10-9-------9---9--|10-9--------------|
|-------10---------|------------------|-------10---------|------------------|
|------------------|------------------|------------------|------------------|
|------------------|------------------|------------------|------------------|
1 . 2 . 3 . 4 . 1 . 2 . 3 . 4 . 1 . 2 . 3 . 4 . 1 . 2 . 3 . 4 .

| ------------------|------------------|------------------|------------------|
| ------------------|------------------|------------7-8---|10-8-7-8-10-8-7-8-|
|:--------7-9-7-----|--------7-9-7-----|--------7-9-------|------------------|
| --7-9-10------10--|--7-9-10------10--|--7-9-10----------|------------------|
| 10----------------|10----------------|10----------------|------------------|
| ------------------|------------------|------------------|------------------|
1 . 2 . 3 . 4 . 1 . 2 . 3 . 4 . 1 . 2 . 3 . 4 . 1 . 2 . 3 . 4 .
|10-10--10-10--8-7-|8-8---8-8---7-8---|10-10--10-10--8-7-|8-8---8-8---7----- |
|------------------|------------------|------------------|------------------ |
|------------------|------------------|------------------|------------------:|
|------------------|------------------|------------------|------------------ |
|------------------|------------------|------------------|------------------ |
|------------------|------------------|------------------|------------------ |
1 . 2 . 3 . 4 . 1 . 2 . 3 . 4 . 1 . 2 . 3 . 4 . 1 . 2 . 3 . 4 .
| 7-7-8--8--10-10-12-12-|12-12-10-10-8--8--7-7- |
| 8-8-10-10-12-12-13-13-|13-13-12-12-10-10-8-8- |
|:----------------------|----------------------:|
| ----------------------|---------------------- |
| ----------------------|---------------------- |
| ----------------------|---------------------- |
1 . 2 . 3 . 4 . 1 . 2 . 3 . 4 .
G
In the fading twilight
G
I sit and stare at her
C
In all her beauty
C
Her beauty
G
You know I have to wonder
G
Why all great men must die
C
And leave their treasure
C
They leave their treasure
{Intro riff}
--




Ваше мнение



Капча