Date: Wed, 13 Nov 1996 11:25:00 -0500
From: Jon Sanford
Subject: TAB OF OBITUARIES WORLD DEMISE

OBITUARY
WORLD DEMISE
from WORLD DEMISE
transcribed by JON SANFORD (JON @CSUOHIO.EDU)

THIS SOUNDS PRETTY GOOD, BUT YOU CAN'T SIMPLY PLAY ALL THE
CHORDS OPEN. ON THIS ALBUM, YOU CAN'T LET THE NOTES RING OUT.
YOU SHOULD DEADEN THE STRINGS CONSTANTLY AND ALMOST ALWAYS PALM
MUTE THE E STRING WHEN PLAYED OPEN. SO IF IT SOUNDS STUPID,
CHANGE THE WAY YOU ARE PLAYING IT.

RIFFS:

E -------------------------------------------------------
B -------------------------------------------------------
G -------------------------------------------------------
D -------------------------------------------------------
A -8-5-----------4---------------------------------------
E -6-3--00000000-2--00000000-----------------------------

E -------------------------------------------------------
B -------------------------------------------------------
G -------------------------------------------------------
D -------------------------------------------------------
A -8-5-----------4---------------------------------------
E -6-3--00000000-2---------------------------------------

E -------------------------------------------------------
B -------------------------------------------------------
G -------------------------------------------------------
D -------------------------------------------------------
A -------------------------------------------------------
E -0000-3333-11111111-22222222-11111111------------------

E -------------------------------------------------------
B -------------------------------------------------------
G -------------------------------------------------------
D -------------------------------------------------------
A -----------1-------------------------------------------
E -0000-3333-1--22222222-11111111------------------------

E -------------------------------------------------------
B -------------------------------------------------------
G -------------------------------------------------------
D -------------------------------------------------------
A -8-5--2-3-0---------2-3-0------------------------------
E -6-3--2-3-0-000000--2-3-0-000000-----------------------

E -------------------------------------------------------
B -------------------------------------------------------
G -------------------------------------------------------
D -------------------------------------------------------
A -8-5--2---3-0-------2---3-0----------------------------
E -6-3--2-0-3-0-0-00--2-0-3-0-0-00-----------------------

E -------------------------------------------------------
B -------------------------------------------------------
G -------------------------------------------------------
D -------------------------------------------------------
A -4/3-3/2--3/2-2/1--------------------------------------
E -4/3-3/2--3/2-2/1-0-0-0-0------------------------------

E -------------------------------------------------------
B -------------------------------------------------------
G -------------------------------------------------------
D -------------------------------------------------------
A -2---4----5---4----2---4---5---------------------------
E -0---2----3---2----0---2---3---------------------------

E -------------------------------------------------------
B -------------------------------------------------------
G -------------------------------------------------------
D -------------------------------------------------------
A -2-2---4----5---4----2---4---5-------------------------
E -0-0---2----3---2----0---2---3-------------------------

STRUCTURE:

1)1*8 6)FILL 1 11)6*16 16)6*3
2)FILL 1 7)2*2 12)7*2 17)END
3)2*2 8)3*2 13)6*8
4)3*2 9)4*4 14)7*2
5)1*4 10)5*4 15)8*2





Ваше мнение



Капча