OBITUARY - TURNED INSIDE OUT
From the Album CAUSE OF DEATH
Copyright RoadRunner Records
Author: Alessandro Rossi [[email protected]]
13 MAY 2001
NOTE: tune down your guitar a whole brutal step! (D,G,C,F,A,D)
listen to the song to take the time
listen to the song for the structure...
Riff 1
|-----------------------------------------------------------------------------|
|-----------------------------------------------------------------------------|
|-----------------------------------------------------------------------------|
|-----------------------------------------------------------------------------|
|--4-3--------------3-4---------------4---5-----------------4-3---------------|
|--2-1-0-000-000-0--1-2-000000000000--2-0-3-0-000000000000--2-1-0-000-000-0---|

Riff 2
|-----------------------------------------------------------------------|
|-----------------------------------------------------------------------|
|-----------------------------------------------------------------------|
|-----------------------------------------------------------------------|
|--4-3--------------3-4--------------4---5------------4-3---------------|
|--2-1-0-000-000-0--1-2-0-000-000-0--2-0-3-000-000-0--2-1-0-000-000-0---|
end of riff 2
|-----------------|
|-----------------|
|-----------------|
|-----------------|
|--4-3------4-3---|
|--2-1------2-1---|
Riff 3
|---------------------------------------------------|
|---------------------------------------------------|
|---------------------------------------------------|
|--------------4--3--------------5--4-----------4---|
|--2--5--4--3--2--1--2--5--4--3--3--2--2--5--4--2---|
|--0--3--2--1--------0--3--2--1--------0--3--2------|
Riff 4
|---------------------------------------------------|
|---------------------------------------------------|
|---------------------------------------------------|
|--------------------------------------5--4---------|
|--2--5--4--3--5--4--3--5--4--3--4--5--3--2--4--3---|
|--0--3--2--1--3--2--1--3--2--1--2--3--------2--1---|
Riff 5 (under the solo)
a)
|-----------------------------------------------------------------------|
|-----------------------------------------------------------------------|
|-----------------------------------------------------------------------|
|-----------------------------------------------------------------------|
|--2222222222222222-----------------------------------------------------|
|-------------------4444444444444444-2222222222222222-3333333333333333--|
b)
|---------------|
|---------------|
|--4------------|
|--2--6--4--5---|
|--2--4--2--3---|
|-----4--2--3---|
end of riff 5
|-------|
|-------|
|-------|
|-------|
|--2----|
|--0----|





Ваше мнение



Капча