Date: Tue, 12 Nov 1996 17:44:25 -0500
From: Jon Sanford
Subject: correction of obituary's 'til death
OBITUARY-greatest band anywhere
'TIL DEATH
from SLOWLY WE ROT
transcribed by JON SANFORD (JON @CSUOHIO.EDU)
NOTE. IF I PUT SOMETHING IN (), THAT MEANS PLAY THAT
NOTE AS DIRECTED. FOR EXAMPLE:
20000023----(1)1ST----(2)2ND
TIME TIME
PLAY THE (1) ALONG WITH THE 20000023, THEN
PLAY THE (2) ALONG WITH THE 20000023.
THIS ALBUM IS DONE IN THE TRADITIONAL LATE 80'S "TREBLE"
DEATH METAL WAY. THE GUITARS ARE ALMOST NONEXISTENT.
BUT THIS ALBUM IS STILL VERY COOL. ONE OF THE BEST AROUND.
HOWEVER, I FEEL THE END COMPLETE IS THE BEST.
AS ALWAYS, PALM MUTE AS NEEDED, AND USE SOME DISTORTION.
RIFFS:
E -------------------------------------------------------
B -------------------------------------------------------
G -------------------------------------------------------
D -------------------------------------------------------
A -------------------------------------------------------
E -200000300000400000432---------------------------------
E -------------------------------------------------------
B -------------------------------------------------------
G -------------------------------------------------------
D -------------------------------------------------------
A -------------------------------------------------------
E -2-000-3-000-4-000-4-3-2-------------------------------
E -------------------------------------------------------
B -------------------------------------------------------
G -------------------------------------------------------
D -------------------4-3-5-------------------------------
A -4-----4-----4-----2-1-3-------------------------------
E -2-xxx-2-xxx-2-xxx-------------------------------------
E -------------------------------------------------------
B -------------------------------------------------------
G -------------------------------------------------------
D -------------------------------------------------------
A -------------------------------------------------------
E -44444444-77777777-44444444-88888888-------------------
E -------------------------------------------------------
B -------------------------------------------------------
G -------------------------------------------------------
D -------------------------------------------------------
A -3-3-7/6/7-------------------3-3-6/5/6-----------------
E -1-1-5/4/5-2222222222222222--1-1-4/3/4-1111111111111111
FILL 1
E -------------------------------------------------------
B -------------------------------------------------------
G -------------------------------------------------------
D -------------------------------------------------------
A -3-------4---------------------------------------------
E -1-------2---------------------------------------------
E -------------------------------------------------------
B -------------------------------------------------------
G -------------------------------------------------------
D ------------------------------(3)------------------------
A ---9/10---4/5---9/10---4/5----(1)1ST-----(1)2ND----------
E -0-7/8--0-2/3-0-7/8--0-2/3-00----TIME----(1)-TIME--------
E ---------------------------THE LAST YOU PLAY THIS,-----
B ------------------------------END----------------------
G ---------------------------------THE-------------------
D ------------------------------------RIFF---------------
A -4---3---8--6---7-9-6-------------------ON--4-LET------
E -2---1---6--4---5-7-4-----------------------2-RING-----
E -------------------------------------------------------
B -------------------------------------------------------
G -------------------------------------------------------
D -------------------------------------------------------
A -2---------8-------4-----------------------------------
E -0---------6-------2-----------------------------------
E -------------------------------------------------------
B -------------------------------------------------------
G -------------------------------------------------------
D -----4-5-------------4-5-------------------------------
A -2-2-2-3-2-2-5-3-2-2-2-3-2-2-5-------------------------
E -0-0-----0-0-3-1-0-0-----0-0-3-------------------------
STRUCTURE
-FUCK MTV AND ALL RADIO STATIONS(EXCEPT WCSB)





Ваше мнение



Капча