Obituary: Threatening Skies
(intro)
Riff A:
----------------------------------------------------------------------
----------------------------------------------------------------------
----------------------------------------------------------------------
-------0-0----0-0-0-0-------0-0----0-0-0-0----------------------------
-------0-0----0-0-0-0-------0-0----0-0-0-0----------------------------
-------0-0----0-0-0-0-------0-0----0-0-0-0----------------------------
p.m. p.m.
(Verse)
Riff B:
---------------------------------------------------------------------
---------------------------------------------------------------------
---------------------------------------------------------------------
------0---0-0-0-0----0---0-0-0-0----6-6-5-1--------------------------
------0---0-0-0-0----0---0-0-0-0----6-6-5-1--------------------------
------0---0-0-0-0----0---0-0-0-0----6-6-5-1--------------------------
p.m. p.m.
(Chorus)
Riff C:
---------------------------------------------------------------------
---------------------------------------------------------------------
---------------------------------------------------------------------
------0---0-0-0-0----0---0-0-0-0----5-6-6-6--------------------------
------0---0-0-0-0----0---0-0-0-0----5-6-6-6--------------------------
------0---0-0-0-0----0---0-0-0-0----5-6-6-6--------------------------
p.m. p.m.
Riff D:
---------------------------------------------------------------------
---------------------------------------------------------------------
---------3-----------------------------------------------------------
------3--3--3---2-2----2-2-2-2---------------------------------------
------3--1--3---2-2----2-2-2-2---------------------------------------
------3-----3---2-2----2-2-2-2---------------------------------------
p.m.
End:
---------------------------------------------------------------------
---------------------------------------------------------------------
---------------------------------------------------------------------
-------0-0----0-0-0-0-------0-0----0-0-0-0----0-0--------------------
-------0-0----0-0-0-0-------0-0----0-0-0-0----0-0--------------------
-------0-0----0-0-0-0-------0-0----0-0-0-0----0-0--------------------
p.m. p.m.
Order: Riff A *4
Riff B *4
Riff C *4
Riff A *2
Riff B *4
Riff C *4
Riff D *4
Riff C *4
Riff D *12
Riff A *4
Riff B *4
Riff C *4
Riff D *4
End *1





Ваше мнение



Капча