OBITUARY
Song: Solid State
Album: World Demise

Tabbed by: Henrique Oliveira ([email protected])

This tab is very basic, and it has only the rhythm guitar, but this riffs are pretty
close so I think that it will be fine to play this song. Obituary on their World
Demise album use a lot of effects and shit, so i tried to put here all the riffs
right. In my opinion this is the right way. So, enjoy it.

Tune down 1/2 step

/ = slide
. = Palm Mute

Intro 4 times
|-------------------|
|-------------------|
|-------------------|
|-----------5---63-|
|-2----5----3---41-|
|-0-00-3-00---00----|
.. .. ..

Riff 1 8 times
|-------------------|
|-------------------|
|-------------------|
|-----------5---63-|
|-2----5----3---41-|
|-0-00-3-00---00----|
.. .. ..

Riff 2 On 5th time
|-----------------|----------|
|---Play 4 times--|----------|
|-----------------|----------|
|--2-----------5--|--------5-|
|--0--------2--3--|-----2--3-|
|--------00-0-----|--00-0----|
.. ..

Riff 1 4 times
|-------------------|
|-------------------|
|-------------------|
|-----------5---63-|
|-2----5----3---41-|
|-0-00-3-00---00----|
.. .. ..

Riff 2 Play with a little
modification on the end
On 5th time
|-----------------|------------|
|---Play 4 times--|------------|
|-----------------|------------|
|--2-----------5--|--------5-5-|
|--0--------2--3--|-----2--3-3-|
|--------00-0-----|--00-0------|
.. ..

Riff 3 On 4th time
|---------------------|------------|
|--Play 3 times-------|------------|
|---------------------|------------|
|---------------------|------------|
|3-----2-------2-2-2--|3-----2---2-|
|1-00--0---00--0-0-0--|1-00--0---0-|
.. .. .. .

Riff 4 Play 4 times
|-----------------|
|-----------------|
|-----------------|
|--2-----------5--|
|--0---------2-3--|
|--------00--0----|
..

Riff 5 Play 8 times
|---------------------------|
|---------------------------|
|---------------------------|
|-2-----3-----5-----64-4/5-|
|-0-000-1-000-3-000-42-2/3-|
|---------------------------|

Here is the solo, I can't hear what is under this.

Than cames the Riff 5 again with a modification on the end
|------Play this 3 times-------------|
|------------------------------------|
|------------------------------------|
|-2--------3--------5--------64-4/5-|
|-0-000000-1-000000-3-000000-42-2/3-|
|------------------------------------|

|----------------------------------|
|----------------------------------|
|----------------------------------|
|-2--------3--------6-5-4--5-4-3--2|
|-0-000000-1-000000-4-3-2--3-2-1--0|
|-----------------------.----.-.---|

Here is the second solo with a lot of effects. Let's ring...
|------Play this 3 times-------------|
|------------------------------------|
|------------------------------------|
|-2--------3--------5--------64-4/5-|
|-0-000000-1-000000-3-000000-42-2/3-|
|------------------------------------|

|--------------------------------------------------|
|--------------------------------------------------|
|--------------------------------------------------|
|-2--------3--------6-5-4--5-4-3----6-5-4--5-4-3--2|
|-0-000000-1-000000-4-3-2--3-2-1----4-3-2--3-2-1--0|
|--------------------------------------------------|

Then cames another solo with some effects.

Riff 6
|----------------------------|
|----------------------------|
|----------------------------|
|----------------------------|
|-2-22222-22222-2222-5-3-4-5-|
|-0-00000-00000-0000-3-1-2-3-|
. ..... ..... .... . .
|-------------------------------|
|-------------------------------|
|-------------------------------|
|-------------------------------|
|-2-22222-2222-5-3-4-5-3-4-2-3-2|
|-0-00000-0000-3-1-2-3-1-2-0-1-0|
. ..... .... . . . . . .
Repeat Riff 2 4 times
Repeat Riff 1 4 times
Repeat Riff 2 4 times
Repeat Riff 3 4 times
Repeat Riff 2 4 times
Repeat Riff 1 4 times
Repeat Riff 2 4 times with the 3rd solo.
Repeat Riff 3 4 times

Thats It!!!!
E-mail [email protected]
Any coments, question or another shit!!!


Ваше мнение



Капча