Date: Fri, 1 Nov 1996 00:19:47 -0500
From: Jon Sanford
OBITUARY-greatest band anywhere
ROTTING WAYS-slow, but so cool
from THE END COMPLETE
transcribed by JON SANFORD (JON @CSUOHIO.EDU)
This is my first attempt. I have about 12 or 13 more by OBITUARY.
This is my own idea of how the song sounds. If you dont like it,
feel free to correct it. If you don't like death metal, you need
to form a mind of you're own and like something that MTV can't handle.
Riffs:
E ----------------------------------------------------------------
B ----------------------------------------------------------------
G ----------------------------------------------------------------
D ----------------------------------------------------------------
A --2------3------------------------------------------------------
E --0------1------00000000-11111111-77777777-66666666-------------
E ----------------------------------------------------------------
B ----------------------------------------------------------------
G ----------------------------------------------------------------
D ----------------------------------------------------------------
A ----------------------------------------------------------------
E -00000000-11111111--77777777-66666666---------------------------
E ----------------------------------------------------------------
B ----------------------------------------------------------------
G ----------------------------------------------------------------
D ----------------------------------------------------------------
A -2---8--6-----2---9--8------------------------------------------
E -0---6--4-----0---7--6------------------------------------------
E ----------------------------------------------------------------
B ----------------------------------------------------------------
G ----------------------------------------------------------------
D ----------------------------------------------------------------
A ----------------------------------------------------------------
E -0000-6666-44444444-00000000-7777-6666--------------------------
FILL 1
E ----------------------------------------------------------------
B ----------------------------------------------------------------
G ----------------------------------------------------------------
D ----------------------------------------------------------------
A ----------3-----------------------------------------------------
E -00000000-1-----------------------------------------------------
E ----------------------------------------------------------------
B ----------------------------------------------------------------
G ----------------------------------------------------------------
D ----------------------------------------------------------------
A ----------------------------------------------------------------
E -00000000-66666666-44444444-22222222----------------------------
E ----------------------------------------------------------------
B ----------------------------------------------------------------
G ----------------------------------------------------------------
D ----------------------------------------------------------------
A ----------------------------(2-1)FIRST TIME----(4-7)-2ND TIME---
E -222222-444444-555555555555-(2-1)--------------(2-5)------------
E ----------------------------------------------------------------
B ----------------------------------------------------------------
G ----------------------------------------------------------------
D -------------------(4-3-5-4-3)FIRST "--(5-4-5-4)2ND "-----------
A -----4-6----5-3----(2-1-3-2-1)---------(3-2-3-2)----------------
E -000-2-4-00-3-1-00----------------------------------------------
E ----------------------------------------------------------------
B ----------------------------------------------------------------
G ----------------------------------------------------------------
D ---------------3------------------------------------------------
A -2-----------4-1-2-------6----5---------------------------------
E -0-----------2---0-------4----3---------------------------------
HOW IS THIS ALL PLAYED?
1)#1*6 4)#4*4 7)#6*2 10)#8*2 13)#1*4 ENJOY!!!
2)#2*7 5)FILL 1 8)#5*4 11)#7*2 14)#2*3 -MORE TO COME
3)#3*4 6)#5*8 9)#7*4 12)#8*2 15)#1*4





Ваше мнение



Капча