Obituary: Platonic Disease
Tuning: Down one step(DGCFAD)
--2-2-2-2-5---2-2-2-2-8-7---2-2-2-2-3---2-2-2-2-6-5---
--2-2-2-2-5---2-2-2-2-8-7---2-2-2-2-3---2-2-2-2-6-5---
Main --0-0-0-0-3---0-0-0-0-6-5---0-0-0-0-1---0-0-0-0-4-3---
---2--2-2--5/8---7-8-5-3-----2--2-2--3/8---7-8-3-------
---2--2-2--5/8---7-8-5-3-----2--2-2--3/8---7-8-3-------
Chorus ---0--0-0--3/6---5-6-3-1-----0--0-0--3/6---5-6-1-------
pm pm
----2--2-2-2----7/8-8-8----5/6-6-6----3/4-4-4----------
----2--2-2-2----7/8-8-8----5/6-6-6----3/4-4-4----------
----0--0-0-0----5/6-6-6----3/4-4-4----1/2-2-2----------
pm
Bridge
-----------------------------8-7-----6-5----------------
----2--2-2-2----7/8-8-8-----8-7-7---6-5-5--------------
----2--2-2-2----7/8-8-8-----6-5-7---4-3-5--------------
----0--0-0-0----5/6-6-6---------5--------3--------------
pm
--2--
--2--
Fill 1 --0--
----2--2-2-2----7/8-8-8----5/6-6-6----3/4-4-4----------
----2--2-2-2----7/8-8-8----5/6-6-6----3/4-4-4----------
----0--0-0-0----5/6-6-6----3/4-4-4----1/2-2-2----------
pm
End
-----------------------------8-7-----6-5-----5-4------4-3-----
----2--2-2-2----7/8-8-8-----8-7-7---6-5-5---5-4-4---4-3-3--2
----2--2-2-2----7/8-8-8-----6-5-7---4-3-5---3-2-4---2-1-3--2
----0--0-0-0----5/6-6-6---------5--------3-------2-------1--0
pm

Order
Main x12
Chorus x2
Main x8
Chorus x4
Bridge x3
Bridge + Fill 1 x1
Main x9
Chorus x4
Bridge x3
End x1





Ваше мнение



Капча