#----------------------------------PLEASE NOTE---------------------------------#
#This file is the author's own work and represents their interpretation of the #
#song. You may only use this file for private study, scholarship, or research. #
#------------------------------------------------------------------------------#
** Memories Remain
** by Obituary
** from the album 'Cause of Death'
Tabbed by Kevin Phillips, [email protected]
[email protected]
Yo! I'm back again with some more tabs from Obituary's excellent Cause of Death
album (Now getting a little ancient, but still one hell of an atmospheric
album!)
Finally, I have my Warlock back (Thanks NZ Police!), so I dug out that old
TAB paper and completed this cool little song. Its pretty basic, but as
always, listen to the track to suss out the correct timing. (Tune down your
axe by about 1 whole step too!).
Enjoy
Kev. ;)
Memories Remain : RIFFS
=======================
RIFF A:
e:----------------------------------|
b:----------------------------------|
g:----------------------------------|
D:----------------------------------|
A:-2--------------4--------5--------|
E:-0-000000000000-2-000000-3-000000-|
[....PM....] [.PM.] [.PM.]
RIFF B:
e:-------------------------------------------------------------------|
b:-------------------------------------------------------------------|
g:-------------------------------------------------------------------|
D:-------------------------------------------------------------------|
A:-----3333-----------------55554444----3333----------------55554444-|
E:-2222-----3333000022223333--------2222----3333222233332222---------|
[............................PM.................................]

RIFF C: RIFF C2:
e:------------------------| |------------------------|
b:------------------------| |------------------------|
g:------------------------| |------------------------|
D:-2-----8--7--5--6--3----| |-2-----8--7--5--6--3----|
A:-0-----6--5--3--4--1----| |-0-----6--5--3--4--1----|
E:------------------------| |-0-----6--5--3--4--1----|
RIFF D: (Open - No PM)
e:---------------------------------------|
b:---------------------------------------|
g:---------------------------------------|
D:---------------------------------------|
A:---------------------------------------|
E:-0000000000000000000-33333333-22222222-|
RIFF E:
e:-----------------------|
b:-----------------------|
g:-----------------------|
D:-5--4-------7--6--8----|
A:-3--2-------5--4--6----|
E:-3--2-------5--4--6----|
FILL E1:
e:------------|
b:------------|
g:------------|
D:-5--4-------|
A:-3--2-------|
E:-3--2-------|
SONG STRUCTURE:
RIFF A x 6 (First time just 1 guitar)
RIFF B x 2
RIFF C x 2
RIFF C2 x 2
RIFF D x 4
RIFF B x 2
RIFF C x 2
RIFF C2 x 2
RIFF E x 5
FILL E1
RIFF A x 2
RIFF B x 2 ; Solo comes in here and continues til end
RIFF C x 2
RIFF C2 x 2
[Fade out, Synths, etc....]





Ваше мнение



Капча