Obituary: Lockdown
Tuning: Down 1 Step(DGCFAD)
--3-2-5--222222----3-2-5--222222----3-2-5--222222-888888777777--
--3-2-5--222222----3-2-5--222222----3-2-5--222222-888888777777--
Main --1-0-3--000000----1-0-3--000000----1-0-3--000000-666666555555--
pm pm
pm pm
--888888777777--
--888888777777--
Fill1 --666666555555--
pm
--3-2--5/7-8--22---3-2--6/8-7--22---
--3-2--5/7-8--22---3-2--6/8-7--22---
Bridge --1-0--3/5-6--00---1-0--4/6-5--00---
pm pm
-2-2-2-2-3-2-2-2-5-2-2-2-6-2-8-8---
-2-2-2-2-3-2-2-2-5-2-2-2-6-2-8-8---
Bridge 2 i -0-0-0-0-1-0-0-0-3-0-0-0-4-0-6-6---
--3-2-5--
--3-2-5--
Fill 2 --1-0-3--
--3--2----7-8---5-6-3---3-3-2-3---
--3--2----7-8---5-6-3---3-3-2-3---
Riff 1 --1--0----5-6---3-4-1---1-1-0-1---
Solo:
D------------------------------------------------------------------------
A------------------------------------------------------------------------
F------------------------------------------------------------------------
C-------15---14---17h19--20--------------15---14---18h20--19----------
G------------------------------------------------------------------------
D------------------------------------------------------------------------
Order
Main x4
Fill 1 x3
Bridge x4
Bridge 2 x4
Bridge x4
Main x4
Fill 1 x3
Fill 2 x1
Main x3
Fill 1 x3
Fill 2 x1
Riff 1 x4
Bridge 2 x4
Bridge x4
Fill 2 x1
Main x1
Fill 1 x3
Fill 2 x1





Ваше мнение



Капча