Date: Tue, 12 Nov 1996 23:17:32 -0500
From: Jon Sanford
Subject: tab of obituary's immortal visions

OBITUARY-RULE
IMMORTAL VISIONS-GODLY
from SLOWLY WE ROT
transcribed by JON SANFORD (JON @CSUOHIO.EDU)

RIFFS:

E ----------------------------------------------------------------
B ----------------------------------------------------------------
G ----------------------------------------------------------------
D ----------------------------------------------------------------
A -5--6--4--5-----------------------------------------------------
E -3--4--2--3-----------------------------------------------------

E ----------------------------------------------------------------
B ----------------------------------------------------------------
G ----------------------------------------------------------------
D ----------------------------------------------------------------
A -5--4--------------6--------------------------------------------
E -3--2--4444444444444--------------------------------------------

E ----------------------------------------------------------------
B ----------------------------------------------------------------
G ----------------------------------------------------------------
D ----------------------------------------------------------------
A ----------------------------------------------------------------
E -3333-4444-22222222---------------------------------------------

E ----------------------------------------------------------------
B ----------------------------------------------------------------
G ----------------------------------------------------------------
D -6---6-5--4-----------------------------------------------------
A -4---4-3--2-----------------------------------------------------
E -4---4-3--2-----------------------------------------------------

E ----------------------------------------------------------------
B ----------------------------------------------------------------
G ----------------------------------------------------------------
D ----------------------------------------------------------------
A -9----10---8----9----9----10------------------------------------
E -7----8----6----7----7----8----22222222222222222222222222222222-

E ----------------------------------------------------------------
B ----------------------------------------------------------------
G ----------------------------------------------------------------
D ----------------------------------------------------------------
A ---------------------------6-4-6-4-7----------------------------
E -4444-2222-44444444-22-55--4-2-4-2-5----------------------------

E ----------------------------------------------------------------
B ----------------------------------------------------------------
G ----------------------------------------------------------------
D ----------------------------------------------------------------
A -5-5-5-5-5--5---------------------------------------------------
E -3-3-3-3-3--3---------------------------------------------------

E ----------------------------------------------------------------
B ----------------------------------------------------------------
G ----------------------------------------------------------------
D ----------------------------------------------------------------
A ----------------------------------------------------------------
E -33333333-55555555-22222222-44444444----------------------------

E ----------------------------------------------------------------
B ----------------------------------------------------------------
G ----------------------------------------------------------------
D ----------------------------------------------------------------
A --------------------5-4-6---------------------------------------
E -3333-2222-44444444-3-2-4---------------------------------------

E ---]
B ---]
G ---]
D -2-]
A -2-]
E -0-]

E ----------------------------------------------------------------
B ----------------------------------------------------------------
G ----------------------------------------------------------------
D ----------------------------------------------------------------
A -4--5--3--3/4/3---4--5--3--5/7/6--------------------------------
E -2--3--1--1/2/1---2--3--1--3/5/4--------------------------------

E ----------------------------------------------------------------
B ----------------------------------------------------------------
G ----------------------------------------------------------------
D ----------------------------------------------------------------
A ----------------------------------------------------------------
E -2-222-3-333-1-111-1/2/1-2-222-3-333-1-111-3/5/4----------------

E ----------------------------------------------------------------
B ----------------------------------------------------------------
G ----------------------------------------------------------------
D -----2-----1----------------------------------------------------
A -----2-----1-----2-----1----------------------------------------
E -000---000---000-2-000-1----------------------------------------

E ----------------------------------------------------------------
B ----------------------------------------------------------------
G ----------------------------------------------------------------
D ---2------2---3-------------------------------------------------
A -4-2-4--4-2-4-3-------------------------------------------------
E -2---2--2---2---------------------------------------------------

E ----------------------------------------------------------------
B ----------------------------------------------------------------
G ----------------------------------------------------------------
D ----------------------------------------------------------------
A -9------10--8---------10----------9-----------------------------
E -7------8---6---------8-----------7-----------------------------

END
E ------]
B ------]
G ------]
D ------]
A -5-4--]
E -3-2--]

STRUCTURE:

1)1*8 5)3*2 9)6*2 13)9*2 17)END
2)FILL 1 6)4*4 10)FILL 4 14)10*4
3)2*4 7)FILL 3 11) 7*2 15)11*2
4)FILL 2 8)5*4 12)8*4 16)3*1





Ваше мнение



Капча