Date: Tue, 12 Nov 1996 18:11:55 -0500
From: Jon Sanford
Subject: TAB OF OBITUARY'S GODLY BEINGS

OBITUARY-RULES
GODLY BEINGS
from SLOWLY WE ROT
transcribed by JON SANFORD (JON @CSUOHIO.EDU)

NEW OBITUARY ALBUM AROUND 1\7\97!!!!!!!!!

E -------------------------------------------------------
B -------------------------------------------------------
G -------------------------------------------------------
D -------------------------------------------------------
A -------------------------------------------------------
E -00000000000000000000000022225555----------------------

E -------------------------------------------------------
B -------------------------------------------------------
G --------------------------------------END--------------
D --------------------------------------ON---------------
A ---------------------------------------2---------------
E -44444444444444444444444422225555------0---------------

E -------------------------------------------------------
B -------------------------------------------------------
G -------------------------------------------------------
D -----4-3-----------------------------------------------
A -2-4-2-1-2-5-4-3---------------------------------------
E -0-2-----0-3-2-1---------------------------------------

E -------------------------------------------------------
B -------------------------------------------------------
G -------------------------------------------------------
D -----------4-2-----------------------------------------
A -2---------2-0-6-------5----4--------------------------
E -0-------------4-------3----2--------------------------

E -------------------------------------------------------
B -------------------------------------------------------
G -------------------------------------------------------
D -------------------------------------------------------
A ----------6-----5-----6-5-4----------------------------
E -00000000-4-000-3-000-4-3-2----------------------------

E -------------------------------------------------------
B -------------------------------------------------------
G -------------------------------------------------------
D -------------------------------------------------------
A ----------5-----4-----5-4-3----------------------------
E -00000000-3-000-2-000-3-2-1----------------------------

GOES A LITTLE SOMTHIN' LIKE DIS!-A REAL BAD JOKE

1)#1*8 4)#2*2 7)#4*4 10)#1*8
2)#2*2 5)#1*2 8)#5*2
3)#1*4 6)#3*5 9)#6*4

-LATER





Ваше мнение



Капча