OBITUARY
Song: Feed on the Week
From the album Back From The Dead
Tabbed by: Henrique Oliveira ([email protected])
Tune down 1/2 step
PM = Palm Mute
Riff 1
|--------------------------------|
|--------------------------------|
|--------------------------------|
|---------5----------------------|
|-2-------3-------5---2-------3--|
|-0--0-0----------3---0--0-0--1--|
PM . . . .
Riff 2
|--------------------||---------------|
|--Repeat 3 times----||---------------|
|--------------------||---------------|
|--------------------||------6--------|
|--2-----------------||------4------6-|
|--0-0-0-0-3221-4332-||-0-0----0-0--4-|
PM . . . .... .... . . . .
Riff 3
|----------------------------------|
|----------------------------------|
|----------------------------------|
|----------------------------------|
|--2-------7/8-----6/7-----5/6-----|
|--0-0-000-5/6-0-0-4/5-0-0-3/4-0-0-|
PM . ... . . . . . .
|---------------------------------|
|---------------------------------|
|---------------------------------|
|---------------------------------|
|----------7-8-----6/7-----10-10--|
|--0-0-000-5/6-0-0-4/5-0-0--8--8--|
PM . . ... . . . .
Riff 4
|-----------------------------------------------|
|-----------------------------------------------|
|-----------------------------------------------|
|------------3----------------------------5-----|
|-2----------1-----3-----2----------5-----3-----|
|-0--0-0-0-0---0-0-1-0-0-0--0-0-0-0-3-0-0---0-0-|
PM . . . . . . . . . . . . . . . .
End
|------------------|
|------------------|
|------------------|
|-----6------------|
|-----4-----6--2-2-|
|-0-0---0-0-4--0-0-|
PM. . . .
SONG STRUCTURE:
Riff 1 - 4 times
Riff 2 - 4 times
Riff 1 - 2 times
Riff 2 - 4 times
Riff 1 - 4 times
Riff 3 - 4 times
Riff 4 - 2 times under the solo
Riff 3 - 2 times
Riff 4 - 4 times under the other solo
Riff 2 - 4 times
End





Ваше мнение



Капча