#----------------------------------PLEASE NOTE---------------------------------#
#This file is the author's own work and represents their interpretation of the #
#song. You may only use this file for private study, scholarship, or research. #
#------------------------------------------------------------------------------#
Obituary's End Complete
as plagarized by Mike Ng
DETUNE A WHOLE STEP
INTRO:
PLAY THIS 8X
D| |-----------------------|------------------------| |
A|o|-----------------------|------------------------|o|
F| |-----------------------|------------------------| |
C| |-----------------------|------------------------| |
G|o|-----10---9-------8--7-|-----10---9-------8--7--|o|
D| |-0-0-8--0-7-0-0-0-6--5-|-0-0-8--0-7-0-0-0-6--5--| |
P.M.. P.M. P.M... P.M.. P.M. P.M... END OF INTRO.
VERSES 1&2: PLAY 2X
D| |----------------|----------------------|----------------|---------------|
A|o|----------------|----------------------|----------------|---------------|
F| |----------------|----------------------|----------------|---------------|
C| |----------------|----------------------|----------------|---------------|
G|o|--4--5----5--6--|----6--7----7--8--(8)|--4--5----5--6--|--6--7----7--6-|
D| |0-2--3--0-3--4--|-0--4--5--0-5--6--(6)|0-2--3--0-3--4--|0-4--5--0-5--6-|
P.M. P.M. P.M. P.M. P.M. P.M. P.M. P.M.
D----------------------|----------------------|----------------------|
A----------------------|----------------------|----------------------|
F----------------------|----------------------|----------------------|
C----------------------|----------------------|----------------------|
G-----10--9-------8--7-|-----10--9-------8--7-|-----10--9-------8--7-|
D-0-0-8-0-7-0-0-0-6--5-|-0-0-8-0-7-0-0-0-6--5-|-0-0-8-0-7-0-0-0-6--5-|
P.M.. P.M. P.M... P.M... P.M. P.M.. P.M... P.M. P.M...
D-----------------------| |
A-----------------------|o|
F-----------------------| |
C-----------------------| |
G-----10--9-------8--7--|o|
D-0-0-8-0-7-0-0-0-6--5--| |END OF VERSE1&2.
P.M.. P.M. P.M...
1ST INTERLUDE:PLAY 3X
D| |-------------------------|-------------------------| |
A|o|-------------------------|-------------------------|o|
F| |-------------------------|-------------------------| |
C| |-------------------------|-------------------------| |
G|o|---------5----------3----|---------7----------4----|o|
D| |-0-0-0-0-3----0-0-0-1----|-0-0-0-0-5----0-0-0-2----| |
P.M...... P.M..... P.M...... P.M....
THEN PLAY THIS:
D-------------------------|------------------------|------------------------|
A-------------------------|------------------------|------------------------|
F-------------------------|------------------------|------------------------|
C-------------------------|------------------------|------------------------|
G---------3----------1----|--------6----------2----|--------3----------1----|
D-0-0-0-0-3----0-0-0-1----|0-0-0-0-6----0-0-0-2----|0-0-0-0-3----0-0-0-1----|
P.M..... P.M..... P.M...... P.M..... P.M..... P.M.....
D------------------------------------|
A------------------------------------|
F------------------------------------|
C------------------------------------|
G--------6----------2----3---4---5---|
D0-0-0-0-6----0-0-0-2----3---4---5---|
P.M..... P.M..... END OF FIRST INTERLUDE.
2ND INTERLUDE:PLAY 4X
D| |----------------------------------------------------------------| |
A|o|----------------------------------------------------------------|o|
F| |----------------------------------------------------------------| |
C| |----------------------------------------------------------------| |
G|o|-2-2-2-2-3-3-3-3-2-2-2-2-3-3-3-3--------------------------------|o|
D| |--------------------------------2-2-2-2-3-3-3-3-1-1-1-1-1-1-1-1-| |
THEN PLAY THIS:4X
D| |------------------------|------------------------| |
A|o|------------------------|------------------------|o|
F| |------------------------|------------------------| |
C| |------------------------|------------------------| |
G|o|-2--2--3--3--2--2--3--3-|------------------------|o|
D| |------------------------|-2--2--3--3--1--1--1--1-| |
THEN PLAY THIS: 4X
D| |---------------------|---------------------|---------------------|
A|o|---------------------|---------------------|---------------------|
F| |---------------------|---------------------|---------------------|
C| |---------------------|---------------------|---------------------|
G|o|-------------7---8---|-------------3---2---|-------------7---8---|
D| |-0--0--0--0--5---6---|-0--0--0--0--3---2---|-0--0--0--0--5---6---|
P.M.......... P.M......... P.M.........
D-------------| |
A-------------|o|
F-------------| |
C-------------| |
G-5---7---3---|o|
D-3---5---1---| |END OF 2ND INTERLUDE.
3RD INTERLUDE:PLAY 4X
D| |------------------------|-------------------------| |
A|o|------------------------|-------------------------|o|
F| |------------------------|-------------------------| |
C| |------------------------|-------------------------| |
G|o|-2--2--3--3--2--2--3--3-|-------------------------|o|
D| |------------------------|-2--2--3--3--1--1--1--1--| |
THEN PLAY THIS: 2X
D| |---------------------|---------------------|---------------------|
A|o|---------------------|---------------------|---------------------|
F| |---------------------|---------------------|---------------------|
C| |---------------------|---------------------|---------------------|
G|o|-------------7---8---|-------------3---2---|-------------7---8---|
D| |-0--0--0--0--5---6---|-0--0--0--0--3---2---|-0--0--0--0--5---6---|
P.M......... P.M......... P.M..........
D----------------------| |
A----------------------|o|
F----------------------| |
C----------------------| |
G--5-----7-----3-------|o|
D--3-----5-----1-------| |END OF 3RD INTERLUDE.
OUTRO: PLAY 10X
D| |---------------------------------|--------------------| |
A|o|---------------------------------|--------------------|o|
F| |---------------------------------|----------4------6--| |
C| |---------------3-3-3-------------|6---------4------6--| |
G|o|-5-5-5-5-3-3-3-1-1-1-3-3-5-5-3-3-|4-5---3---2---5--4--|o|
D| |-3-3-3-3-1-1-1-------1-1-3-3-1-1-|--3---1---2---3--4--| |
P.M..................................
KEY:
P.M.=PALM MUTE =SLIDE DOWN

| |
|o|
| |=REPEAT
| |
|o|
| |
I HAVE NO BLOODY IDEA WHAT THE SOLO OR LYRICS ARE SO DON'T EVEN ASK.
mike
[email protected]





Ваше мнение



Капча