Date: Thu, 31 Oct 1996 21:19:10 -0800 (PST)
From: Jon Sanford
OBITUARY-greatest band anywhere
DEAD SILENCE
from THE END COMPLETE
transcribed by JON SANFORD (JON @CSUOHIO.EDU)
This is my own idea of how the song sounds. If you dont like it,
feel free to correct it. If you don't like death metal, you need
to form a mind of you're own and like something that MTV can't handle.
RIFFS:
E ----------------------------------------------------------------
B ----------------------------------------------------------------
G ----------------------------------------------------------------
D ----------------------------------------------------------------
A ------3-----4-----5-6-------------------------------------------
E -0000-1--00-2--00-3-4-------------------------------------------
E ----------------------------------------------------------------
B ----------------------------------------------------------------
G ----------------------------------------------------------------
D ----------------------------------------------------------------
A --------------------------------1ST-----------2ND---------------
E -11111111-4444-3333-00000000-(22222222)----(66666666)-----------
E ----------------------------------------------------------------
B ----------------------------------------------------------------
G ----------------------------------------------------------------
D -------------6-5-----4-2----------------------------------------
A -5-----6-----4-3-5-4-2-1-5-4------------------------------------
E -3-----4---------3-2-----3-2------------------------------------
E ----------------------------------------------------------------
B ----------------------------------------------------------------
G ----------------------------------------------------------------
D ----------------------------------------------------------------
A -2-1---2-1---2-1---2-1----------TRILL---------------------------
E ----2-1---2-1---2-1---2-1-------TRILL---------------------------

E ----------------------------------------------------------------
B ----------------------------------------------------------------
G ----------------------------------------------------------------
D ----------------------------------------------------------------
A -4-3---4-3---4-3---4-3----------TRILL---------------------------
E ----4-3---4-3---4-3---4-3-------TRILL---------------------------
E ----------------------------------------------------------------
B ----------------------------------------------------------------
G ----------------------------------------------------------------
D ----------------------------------------------------------------
A ---------------------3-------6--5-------------------------------
E -100001000010000100001-------4--3-------------------------------
FILL 1
E ----------------------------------------------------------------
B ----------------------------------------------------------------
G ----------------------------------------------------------------
D -2--LET---------------------------------------------------------
A -2-------THIS---------------------------------------------------
E -0--------------RING--------------------------------------------
E ----------------------------------------------------------------
B ----------------------------------------------------------------
G ----------------------------------------------------------------
D ------3-----4-----5-6-------------------------------------------
A ------3-----4-----5-6-------------------------------------------
E -0000-1--00-2--00-3-4-------------------------------------------
NOW PUT IT ALL TOGETHER!
1)#1*8 8)#4*1 15)#7*1
2)#2*2 9)#5*1
3)#1*4 10)#6*4
4)#2*4 11)#1*1
5)#3*4 12)FILL 1
6)#4*1 13)#1*4
7)#5*1 14)#2*2
--ANY REQUESTS(OBITUARY ONLY), E-MAIL ME
--I ALSO HAVE TABBED OUT ALMOST THE ENTIRE DEFTONES ALBUM, I WILL
PUT THAT UP SOMETIME
--ANYBODY TAB OUT ANYTHING BY IMMOLATION, CANNIBAL CORPSE, I CAN'T
SEND ME THEM





Ваше мнение



Капча