Obituary: By The Light
Tuning:Down 1 whole step (DGCFAD)
-------------------3------------------------------------
----2--22--2--22--3--3------2--22--2--22--5---3-------
Main ----2--22--2--22--1--3------2--22--2--22--5---3-------
----0--00--0--00-----1------0--00--0--00--3---1-------
pm pm pm
pm
--------5---3--------------------------------------------
Chorus ---5---5---3--3-----2--22--2-2-2--2222-----------------
---5---3---1--3-----2--22--2-2-2--2222-----------------
---3----------1-----0--00--0-0-0--0000-----------------
pm
pm
Bridge
--------------5-6-6----------------3-4-4----------------5-6-6----777666
---2--2-2-2---5-6-6-----2--2-2-2---3-4-4----2--2-2-2---5-6-6----777666
---2--2-2-2---3-4-4-----2--2-2-2---1-2-2----2--2-2-2---3-4-4----555444
---0--0-0-0-------------0--0-0-0-------------0--0-0-0-------------------
pm pm
pm
-------5---3------
Fill 1 ---5---5---3--3---
---5---3---1--3---
---3----------1---
--2--2-2-2---5-4-2---6-5-2---5-4-2---------------
Bridge 2 --2--2-2-2---5-4-2---6-5-2---5-4-2---------------
--0--0-0-0---3-2-0---4-3-0---3-2-0---------------
pm
---2---
End Fill ---2---
---0---

pm=palm muting
Order
Main x8
Chorus x4
Main x4
Chorus x3
Fill 1 x1
Bridge x4
Bridge 2 x4
Bridge x4
Bridge 2 x4
End Fill x1





Ваше мнение



Капча