Date: Sat, 13 Jan 1996 18:10:23 -0800
From: [email protected] (Lehman-Brown)
Subject: TAB:Burned In by Obituary
Obituary's "Burned In"
From the Album "World Demise"
Drop-D-Tuning
Intro:
Let ring ??x
E---||-------------------------||---------------------------------------
B---||-------------------------||---------------------------------------
G---||*-----7-----7--8--7-----*||---------------------------------------
D---||*--------7--------------*||---------------------------------------
A---||---0---------------------||--0--0--0--0--0--0--0------------------
D---||---0---------------------||--0--0--0--0--0--0--0------------------
Main Riff:
??x
E---||------------------------------|---------------------------||------
B---||------------------------------|---------------------------||------
G---||*-----------------------------|--------------------------*||------
D---||*-----------------------------|--------------------------*||------
A---||---9--8--------------6--5--6--|--9--8--------------1------||------
D---||---9--8--0--0--0--0--6--5--6--|--9--8--0--0--0--0--1--0---||------
Chorus:
??x
E---||----------------------------------------------------------||------
B---||----------------------------------------------------------||------
G---||*--------------------------------------------------------*||------
D---||*--------------------------------------------------------*||------
A---||---2-----------6-----------5-----------------1--------3---||------
D---||---2-----------6-----------5-----------0--0--1--0--0--3---||------
Other Riff:
E---||------------------------------------------|
B---||------------------------------------------|
G---||*-----------------------------------------|
D---||*-----------------------------------------|
A---||---------------6-----------------2-----3--|
D---||---0--0--0--0--6--------0--0--0--2--0--3--|
??x
E----------------------------------------------||
B----------------------------------------------||
G---------------------------------------------*||
D---------------------------------------------*||
A---------------6-----------------7-----3--4---||
D---0--0--0--0--6--------0--0--0--7--0--3--4---||
This is my very first TAB, it may be(and probably is)
wrong in some parts. Hope it helps.
Tabbed by: Kris
http://www.microweb.com/lbrown/kris.html





Ваше мнение



Капча