Solo from Body Bag (by Obituary)


NOTATION LEGEND
---------------
PM--| |---| Palm Mute
H hammer on
P pull off
slide
BD bar dive
BU bar up
< > pick harmonics
~ vibrato

E|--------------------------------------------------------------------------|
B|--------------------------------------------------------------------------|
G|--BU--------BU-----5~--4-5~-4----5-4-7-5-4--------------------------------|
D|--/5---------/9----------------------------7-5-4-~----4h5p4------------|
A|---------------------------------------------------------------7-5-4-5-7--|
E|--------------------------------------------------------------------------|
PM-| |------------| |--------

------------------------------------------------------|
------------------------------------------------------|
-------4----------------------------------------------|
-4-5-7---7-5-4-5-4h5p4-2-4----------------------------|
---------------------------3h5p32h3p2--------BD------|
---------------------------------------5-4-2-0-------|
------| |----|





Ваше мнение



Капча