person:Matt taylor
song: Who Feels Love
artist: Oasis
tab: Date: 06/06/003 21:10
Song: Who Feels Love?
Artist: Oasis
Written By: Noel Gallagher
Tabbed By: Matt taylor
well, this solo i listened in a page http://www.geocities.com/bootlegschemistry/oasis.html
check this page!
here this is no a guitar it 's with a flute i think, but i play it with a
guitar notes and it's cool, the solo it's in the all the song.
G (320033)
Bb9 (x13030)
A7sus4 (x02030)
Cadd9 (x32030)
verse-1
G G G
e|---------------------------------------------------------------------------|
B|----15-------17-----12---13----14----15--15--15-----13----12------13---12--|
G|--------16-----------------------------------------------------14----------|
D|---------------------------------------------------------------------------|
A|---------------------------------------------------------------------------|
E|---------------------------------------------------------------------------|
e|---------------------------------------------------------------------------|
B|------------------12----13---15----15----15----13----12--------------------|
G|----14-----12--------------------------------------------------------------|
A|---------------------------------------------------------------------------|
E|---------------------------------------------------------------------------|
repeat the same
G G G
e|---------------------------------------------------------------------------|
B|----15-------17-----12---13----14----15--15--15-----13----12------13---12--|
G|--------16-----------------------------------------------------14----------|
D|---------------------------------------------------------------------------|
A|---------------------------------------------------------------------------|
E|---------------------------------------------------------------------------|
G G G
e|---------------------------------------------------------------------------|
B|------------------12----13---15----15----15----13----12--------------------|
G|----14-----12--------------------------------------------------------------|
A|---------------------------------------------------------------------------|
E|---------------------------------------------------------------------------|
CHORUS:
Bb9
e|---------------------------------------------------------------------------|
B|---13---12-----------------------------------------------------------------|
G|--------------17----16------17----16----17---16-----17----16-----17----16--|
D|---------------------------------------------------------------------------|
A|---------------------------------------------------------------------------|
E|---------------------------------------------------------------------------|
A7sus4 Cadd9 G/B
e|---------------------------------------------------------------------------|
B|----15------13------12---------------------13------12----------------------|
G|----------------------------17-----16---------------------12-----12--------|
D|---------------------------------------------------------------------------|
A|---------------------------------------------------------------------------|
E|---------------------------------------------------------------------------|
Bb9
e|---------------------------------------------------------------------------|
B|---13---12-----------------------------------------------------------------|
G|--------------17----16------17----16----17---16-----17----16-----17----16--|
D|---------------------------------------------------------------------------|
A|---------------------------------------------------------------------------|
E|---------------------------------------------------------------------------|
A7sus4 G
e|---------------------------------------------------------------------------|
B|----15------13------12---------------------13------12----------------------|
G|----------------------------17-----16---------------------12-----12--------|
D|---------------------------------------------------------------------------|
A|---------------------------------------------------------------------------|
E|---------------------------------------------------------------------------|
verse 2 is the same as verse 1
repeat chorus
solo--
do it three times
Bb9 A7sus4 Cadd9 G/B
e|--------------0----------------0---------------0--------------0------------|
B|----------0------0---------0------0--------0-------0------0------0---------|
G|---------------------------------------------------------------------------|
D|---------------------------------------------------------------------------|
A|-----10----------------8----------------7--------------5-------------------|
E|---------------------------------------------------------------------------|
after you did three times do this:
Bb9 A7sus4 Cadd9 G/B
e|--------------0----------------0------------------0------------------------|
B|---------0--------0--------0-------0---------0-------0---------------------|
G|---------------------------------------------------------------------------|
D|---------------------------------------------------------0-----------------|
A|---6-------------------6-----------------6---------------------------------|
E|---------------------------------------------------------------------------|
Bb9 A7sus4 Cadd9 G/B
e|----------------------------10-----9---------------------------------------|
B|---3--------0--------1------------------8----6-------0-------3-------------|
G|-------0----------------------------------------0--------5-----------------|
D|---------------------------------------------------------------------------|
A|---------------------------------------------------------------------------|
E|---------------------------------------------------------------------------|
e|--------------------10-----------------------------------------------------|
B|---------8----12-------------0----------3----------------------------------|
G|---10--------------------0---------5---------------------------------------|
D|---------------------------------------------------------------------------|
A|---------------------------------------------------------------------------|
E|---------------------------------------------------------------------------|
e|--------------------10-----------------------------------------------------|
B|--------8-----12--------------0----------3---------------------------------|
G|----10--------------------0----------5-------------------------------------|
D|---------------------------------------------------------------------------|
A|---------------------------------------------------------------------------|
E|---------------------------------------------------------------------------|
this by another guitar:
e|---------------------------------------------------------------------------|
B|-15---15-----15-----15----13----15----13----15----15---15---13--15---13--15|
G|---------------------------------------------------------------------------|
D|---------------------------------------------------------------------------|
A|---------------------------------------------------------------------------|
E|---------------------------------------------------------------------------|
e|---------------------------------------------------------------------------|
B|-15----15-----15-----15----13----15---13----15----15---15---13--15---13--15|
G|---------------------------------------------------------------------------|
D|---------------------------------------------------------------------------|
A|---------------------------------------------------------------------------|
E|---------------------------------------------------------------------------|
repeat the chorus
repeat this solo
e|---------------------------------------------------------------------------|
B|-15---15-----15-----15----13----15----13----15----15---15---13--15---13--15|
G|---------------------------------------------------------------------------|
D|---------------------------------------------------------------------------|
A|---------------------------------------------------------------------------|
E|---------------------------------------------------------------------------|
e|---------------------------------------------------------------------------|
B|-15----15-----15-----15----13----15---13----15----15---15---13--15---13--15|
G|---------------------------------------------------------------------------|
D|---------------------------------------------------------------------------|
A|---------------------------------------------------------------------------|
E|---------------------------------------------------------------------------|
the end of the solo
e|--------------------10-----------------------10----------------10----------|
B|--------8-----12---------------8-------12--------------8-------------------|
G|----10--------------------10----------------------10-----------------------|
D|---------------------------------------------------------------------------|
A|---------------------------------------------------------------------------|
E|---------------------------------------------------------------------------|




Ваше мнение



Капча