e: Sun, 1 Mar 1998 19:44:07 -0500 (EST)
From: Fred Lidskog
Subject: TAB: Underneath The Sky by Oasis
"Underneath The Sky"
Performed by Oasis
From the single "Don't Look Back In Anger" on Sony/Creation Records
Music by: N. Gallagher
Lyrics by: N. Gallagher
-------------
Tabbed by Fred Lidskog
Chords used:
EADGBe
Bm (x24432)
G (355433)
A (x02220)
A2 (577655)
F#7 (242322)
G#m (244222)
Tab Key:
b = bend (7b8 means bend the string at the 7th fret to make approximately
the note the string would make if played at the 8th fret with no bend)
r = release bend
NOTE: The second guitar in this song is using some kind of effect I don't
know the name of, and is hard to hear at some points in the song. Listed
below are the main audible riffs played by the second guitar.
Fill 1: Fill 2:
e-------------------------------------------------------
B---7-8-7--10--8--7------------7-8-7--------------------
G-------------------------------------9--7--------------
D-9--------------------------9--------------9-----------
A-------------------------------------------------------
E-------------------------------------------------------
Fill 3: Fill 4:
G A Bm G A Bm
e--------------------------------------------------------
B----3-----5-----------------------3-----5---------------
G------------------10-9-7-----------------------10--7----
D-5-----7--------9--------------5-----7-------9--------7-
A--------------------------------------------------------
E--------------------------------------------------------
Fill 5:
e-------------------------------------------------------
B-------------------------------------------------------
G--9b10-b10r9--7----------------------------------------
D-----------------9-------------------------------------
A-------------------------------------------------------
E-------------------------------------------------------
Intro (w/ effect)
-----
e-------------------------------------------------------
B-3--3--3p0-3p0-3--3--3p0-3p0-3--5--3p0-3--5--3p0-------
G-4--4--4---4---4--4--4---4---4--4--4---4--4--4---------
D-4--4--4---4---4--4--4---4---4--4--4---4--4--4---------
A-2--2--2---2---2--2--2---2---2-------------------------
E-------------------------------------------------------
then:
Guitar 1: G F#7 A Bm G A Bm G A Bm F#7
Guitar 2: Fill 2 Fill 1 Fill 2 Fill 1
Guitar 1: Bm G A Bm G A Bm F#7
Guitar 2: Fill 2 Fill 1
Verse
-----
Bm G A Bm G A Bm F#7
Underneath a sky of breath is a storyteller sleeping alone
Bm G A Bm G A Bm
He has no face and he has no name an' his whereabouts are sort of unknown
Pre-chorus
----------
F#7 G A Bm
(w/ Fill 3)
All he needs is his life in a suitcase
G A Bm
(w/ Fill 3)
It belongs to a friend of a friend
G A Bm
(w/ Fill 4)
And as we drink to ourselves we'll amuse ourselves
Chorus
------
G
Underneath the sky
F# A G#m G Bm A G#m G
(Fill 5)
Underneath the sky again
Bm A G#m G Bm A G F#7 A
(Fill 5)
Underneath the sky again
Bm G A Bm G A Bm F#7
(Fill 5) (Fill 5)
Verse 2
-------
So wish me away to an unknown place
Am I living in a land with no name? (Fill 5)
I'll be making a start with my brand new heart
stop me making sense once again (Fill 5)
Pre-chorus
----------
(Fill 3)
All we need is our lives in a suitcase
(Fill 3)
They belong to a friend of a friend
(Fill 3)
And as we drink to ourselves we amuse ourselves
Chorus
------
Underneath the sky
(Fill 5)
Underneath the sky again
(Fill 5) (Fill 5)
Underneath the sky again
SOLO:
----
If you'd like to play the piano solo on guitar, it is simply Fill 2, then
Fill, then Fill 2, then Fill 1 played over the verse chords.
[Pre-chorus]
[Chorus]
Questions, comments, corrections, requests to [email protected]




Ваше мнение



Капча