By Andrew Halstead

Chords used:

(Capo 2nd Fret)

A (X02220)
Dsus2 (XX0230)
D (XX0232)
E (022100)
C/G (332010)

Main Riff:
E-----------------------------------------------------------
B--------------------7--------------------------------------
G--8-9-8---------8-9---9-8--8-9-8---------------------------
D---------9-9--9-------------------9-7-7---7-9-9------------
A----------------------------------------9------------------
E-----------------------------------------------------------

Verse
A
I get up, when i'm down
Dsus2
I can't swim, but my soul won't drown
A
I do believe, i've got flair
Dsus2
I got speed and I walk on air

Bridge
D A
Cos god gave me a soul in your rock'n'roll babe
D A
Cos god gave me a soul in your rock'n'roll babe

Chorus
E D A
And I get so high I just can't feel it
E D
And I get so high I just can't feel it
C/G D C/G
In and out my brain your runnin' through my veins
Dsus2 A
Your my sunshine your my rain

A Dsus2

Verse 2
There's a light, that shines on
Shines on me and it keeps me warm
It gives me peace I must say
I can't sleep cos the world won't wait

(Bridge)
(Chorus)

Solo:
D A
E-----------------------------------------------------------
B--------------------------12-------------------------7-----
G-13-14-13-----------13-14----14-13--8-9-8--------8-9---9-8-
D----------14-14--14-----------------------9-9--9-----------
A-----------------------------------------------------------
E-----------------------------------------------------------
(x2)

And I get so high I just Can't feel it
And I get so high I just Can't feel it
And I get so high I just Can't feel it
And I get so high I just can't feel it

In and out my brain your runnin' through my veins
You're my sunshine your my rain

A A




Ваше мнение



Капча