Taxman

(Familiar To Millions)

Tabbed by James Elkins ([email protected])

The whole song is just guitars and a little drums.There are two
main lead riffs:
E
|------------------------------------|
|------------------------------------|
|--1~------------------------------1-|
|--2~--2-2/6~-6/7~-7/9~-92~-2/6~-2-|
|--2~------------------------------2-|
|------------------------------------|
E
|---------------------------------------------------| (A bunch of
|---------------------------------------------------| times)
|--1~---------------------------------------------1-|
|--2~---------------------------------------------2-|
|--2~--2-2-2/5~--5-5/7~~-75~5~5~5~5~5~5~5/7~~----2-|
|---------------------------------------------------|

d
|--2-2-2-2-2-----| (A bunch of times,again)
|--3-3-3-3-3-----|
|--2-2-2-2-2--1~-|
|--x-x-x-x-x--2~-|
|--x-x-x-x-x--2~-|
|--x-x-x-x-x-----|

Then it fades into Cigarettes and Alcohol.

any comments or requests contact us.




Ваше мнение



Капча