From: [email protected]
SUPERSONIC by OASIS
-------------------

F#:244322
E/F#:044322
A:x02220
B:24442
C#:x46664
intro: F# A B (x3)

F# E/F# F# A B
I need to be myself
F# E/F# F# A B
I can't be no one else
F# E/F# F# A B
I'm feeling supersonic give me gin & tonic
F# E/F# F# A B
You can have it all, but how much do you want it
F# E/F# F# A B
You make me laugh
F# E/F# F# A B
Give me your autograph
F# E/F# F# A B
Can I ride with you in your BMW
F# E/F# F# A B
You can sail with me in my yellow submarine
E
You need to find out 'cos no ones gonna tell you
F# E/F# F#
What I'm on about
E
You need to find a way for what you want to say
C#
But before tomorrow

Chorus:
-------
(use barre chords E:x79997 A:577655 B:799877 F#:244322)
E A
'Cos my friend said
B F#
He'd take you home
E A B
He sits in the corner
F#
All alone
E A B F#
He lives under a waterfall
E A B F#
Nobody can see him
E A B F#
Nobody could ever hear him call
solo:
----
b:bend
E---------------------------------------12----------------------------
B-12b-10-12-10---------10--------12b-10----13-12-10------10-12----10--
G--------------11-9-11----11-9----------------------9-11-------11-----
D---------------------------------------------------------------------
A---------------------------------------------------------------------
E---------------------------------------------------------------------

(same as the begining)
You need to be youself
You can't be no one else
I know a girl called Ailsa
She's into alka-seltza
She sniffs it through a cane
On a supersonic train
And she makes me laugh
I've got her autograph
She done it with a doctor
On a helicopter
She sniffed it in a tissue
Selling the big issue
When she finds out
No ones's gonna tell her what I'm on about
You need to find away for
What you want to say
But before tomorrow
(repeat chorus twice)
(impro on the solo)
SUPERSONIC by OASIS
(from the album Definitly Maybe)

Intro:
F# A B
E----------------------------------------
H---------5---2--------------------------
G-------4-------0------------------------ x3
D-----4-----------4--------5--------7----
A---4---------------4------5--------7----
E--------------------------3--------5----

Verse1:
F# E/F# F# A B
I need to be myself

F# E/F# F# A B
I can be no one else

F# A B
I'm feeling supersonic give me gin and tonic

F# A B
You can have it all but how much do you want it

F# E/F# F# A B
You make me laugh

F# E/F# F# A B
Give me your autograph

F# A B
Can I ride with you in your BMW

F# A B
You can sail with me in my yellow submarine

E
You need to find out 'cos no ones gonna tell you

F#
what I'm on about

E
You need to find a way for what you wanna say

C#
but before tomorrow

Chorus:
E A B F#
'Cos my friend said he'd take you home

E A B F#
He sits in the corner all alone

E A B F#
He lives under a waterfall

E A B F#
Nobody could see him , nobody could ever hear him call
Solo:

E----------------------------------------------------14-12------
H-10h12-10h12-10-10h12-10-------10-----10h12-10h12-10-----15-12-
G------------------------11-9-11--11-9--------------------------
D---------------------------------------------------------------
A---------------------------------------------------------------
E---------------------------------------------------------------
E------------------------
H------10h12-10---10-----
G-9h11----------11-------
D------------------------
A------------------------
E------------------------
h:hammer on

Verse2:
You need to be yourself
You can be no one else
I know a girl called Elsa she's into alka-seltza
She sniffs it through a cane on a supersonic train
And she makes me laugh
I've got her autograph
She's done it with a doctor on a helicopter
She's sniffin' in a tissue selling the big issue
When she finds out no one's gonna tell her what I'm on about
You need to find a way for what you wanna say
but before tomorrow
(repeat Chorus)

Chords:
F# :244322
E/F# :044322
A:x02220
B:x24442
C# :x46664

Questions,corrections or additions are always welcome.
I hope you enjoy it,
====================================
Lukas Wiesboeck
A-2403 Wildungsmauer 204,Austria
e-mail:[email protected]
====================================




Ваше мнение



Капча