Supersonic Solo
This is the right version of it!
----------------------------------------------|
----------------------------------------------|
----16b--16--14------------------14-----------|
----------------------16--14-16------16-14----|
----------------------------------------------|
----------------------------------------------|
-----------------------------------------------|
------------------------- 17b------------------|
-------14----16b--16--14-------------16---14---|
---16------------------------------------------|
-----------------------------------------------|
-----------------------------------------------|
-----------------------------------------------|
-----------------------------------------------|
-------14--16--14------14----------------------|
--16---------------16--------------------------|
-----------------------------------------------|
-----------------------------------------------|
Just repeat untill the end!
Tabbed By Callum Meldrum




Ваше мнение



Капча