Name: Alex Damiani
Tabs: 'Sunday morning call'
'Oasis'
from the album 'Standing on the shoulders of giants'
Tabbed by : Alex Damiani -- [email protected]
I have finally tabbed the intro and the solo....
Chords used:
Bb : 688766
Dm : x57765
G : 320033
D : xx0232
D2 : xx0230
Em : 022000
Am7 : x02010
Am : x02210
F : 133211
C : 332010
intro :
listen to the song for the rhythm
Bb
e------6-6-6-6-6-6-6-6-------6-6-6-6-6-6-6-6------
B------6-6-6-6-6-6-6-6-------6-6-6-6-6-6-6-6------
G------7-7-7-7-7-7-6-6h7-----7-7-7-7-7-7-6-6h7----
D------8-8-8-8-8-8-8-8-------8-8-8-8-8-8-8-8------
A------8-8-8-8-8-8-8-8-------8-8-8-8-8-8-8-8------
E------6-6-6-6-6-6-6-6-------6-6-6-6-6-6-6-6------
Bb Dm
Here's another Sunday morning call
Bb Dm
You hear your head banging on the door
Bb Dm
You slip those shoes on and then out you crawl
Bb Dm
Into a day that couldn't give you more
D
But what for?
Chorus :
G D
And In your head, do you feel
Em Am7
What you're not supposed to feel
G D
And you take, what you want
F Em D
But you don't get it for free
G D
You need, more time
Em Am G
Coz your thoughts and words won't last forever more
D
But I'm not sure
C Am
If it ever works out right
D2 D D2 D....
But it's ok , it's alright

Bb Dm
When you're lonely and you start to hear
Bb Dm
The little voices in your head at night
Bb Dm
You will only sniff away the tears
Bb Dm
So you can dance until the morning light
D
But at what price?
Chorus x 1
Solo :
e--------------------|---------------------------------|------------------|---------------------|
B--------------------|---------------------------------|--3---6-----------|----3---6------------|
G--5b7--5br7--3------|--------------3-------3~---------|--------5b7r5~----|-5---------5b7r5~----|
D-----------------5--|--------3--5------5--------5~----|------------------|---------------------|
A--------------------|--3--5---------------------------|------------------|---------------------|
E--------------------|---------------------------------|------------------|---------------------|
e--------------------|---------------------------------|------------------|---------------------|
B--------------------|---------------------------------|--3---6-----------|----3---6------------|
G--5b7--5br7--3------|--------------3-----3~-----------|--------5b7r5~----|-5---------5b7r5~----|
D-----------------5--|--------3--5-----5-----5--3--5~--|------------------|---------------------|
A--------------------|--3--5---------------------------|------------------|---------------------|
E--------------------|---------------------------------|------------------|---------------------|
D C D
e--------------------|.........................
B--------------------|.........................
G--5--4--5--6--7~----|...........improvise!!!..
D--------------------|.........................
A--------------------|.........................
E--------------------|.........................
G D
And In your head, do you feel
Em Am7
What you're not supposed to feel
G D
And you take, what you want
F Em D
But you can't get hope for free
G D
You need, more time
Em Am G
Coz your thoughts and words won't last forever more
D
But I'm not sure
F C G D
If it ever ever ever works out right
F C G D
If it ever ever ever works out right
F C G
Coz it never never never works out right




Ваше мнение



Капча