Step Out
Oasis
INTRO:
E|--------------------------------------------------------|
B|--------------------------------------------------------|
G|----7--9b11..11..11..11r9--7---9b11..11..11..11r9--7----|
D|--9--------------------------9-----------------------9--|
A|--------------------------------------------------------|
E|--------------------------------------------------------|
E|--------------------------|
B|--------------------------|
G|--7-7-----7--9b11--7~~~---|
D|-------9------------------|
A|--------------------------|
E|--------------------------|
Repeated :)
VERSE 1:
What she [D]said
She [G]said to me
Take me [Em]high on a [G]mountain [D]side
VERSE 2:
She was [D]dressed
Up in a [G]leapord skin
Had a [Em]soul that would never [G]be [D]denied
PRE-CHORUS 1:
I [A]met her down a disco in a beat up car
She was [C]burning down the road
She [A]looked just like a star in a jaguar
She [E]needs to lighten her [G]load
CHORUS:
[D]You might [G]think your gonna [Em]cry
It will be [D]alright
Step [G]Out Tonight [Em]
[D]You might [G]think your gonna [Em]cry
It will be [D]alright
Step [G]Out Tonight [Em]
VERSE 3:
What I [D]said
I [G]said to her
I'm [Em]alive when you [G]walk that [D]way
VERSE 4:
Can you [D]hear
What [G]I can hear?
Its a [Em]sound of a brand new [D]day
PRE-CHORUS 2:
She [A]met me down a disco in a beat up car
I was [C]burning down the road
I [A]can be a star in a jaguar
I [E]need to lighten my [G]load
CHORUS:
BRIDGE:
[G]Well, My whole lifes been
Sinking in the [D]water
I [C]need a ship not your
Sweet lip [A]Tonight
SOLO:
D G Em
E|--------------------------------------------------------|
B|--------------------------------------------------------|
G|----7--9b11..11..11..11r9--7---9b11..11..11..11r9--7----|
D|--9--------------------------9-----------------------9--|
A|--------------------------------------------------------|
E|--------------------------------------------------------|
G D
E|-----------------------------------------|
B|-----------------------------------------|
G|--7-7-----7--9--7--9b11..11..11r9--7-----|
D|-------9------------------------------9--|
A|-----------------------------------------|
E|-----------------------------------------|
D G Em G D
E|---------------------------------------------------------|
B|---------------------------------------------------------|
G|----7--9b11.....11r9--7----7-7-----7--9b11--7~~~-----7-9-|
D|--9---------------------9-------9------------------9-----|
A|---------------------------------------------------------|
E|---------------------------------------------------------|
A
E|-------------------------------------------|
B|--12b14--10--8---------12b14--10--8--------|
G|----------------9--7-----------------9--7--|
D|-------------------------------------------|
A|-------------------------------------------|
E|-------------------------------------------|
C A E G
E|---------------------------------------------------------|
B|---------------------------------------------------------|
G|-9b11--9b11--9b11--7----7~~--7~~--7~~--9b11...11r9--7~~~-|
D|---------------------9-----------------------------------|
A|---------------------------------------------------------|
E|---------------------------------------------------------|
CHORUS: x2
ENDING: Play over chorus chords till end
TAB KEY:
9b11..11..11..11r9 - Bend, hold, pick then release
7~~~~ - Vibrato
12b14 - Bend up
9b11.....11r9 - Bend, hold and release




Ваше мнение



Капча