e: Wed, 18 Mar 1998 21:12:46 -0500 (EST)
From: Fred Lidskog
Subject: o/oasis/stary_young.tab
"Stay Young"
Performed by Oasis
From the CD Single "D'You Know What I Mean?" on Sony/Creation Records
Music by: N. Gallagher
Lyrics by: N. Gallagher
(c)1997
-------------
Tabbed by Fred Lidskog
Chords used:
EADGBe
G (3x0033)
G5 (355xxx)
Em7 (022030)
D (xx0232)
F#7 (2423xx) NOTE: during this chord another guitar faintly plays an
F#11 (244300)
D/F# (2x0232)
A (x02220)
A5 (577xxx)
Tab Key:
b = bend (7b8 means bend the string at the 7th fret to make approximately
the note the string would make if played at the 8th fret with no bend
r = release bend
h = hammer on
p = pull off
s = slide (a quick slide, sounds like one note)
/ = a slide in which you play the first note, THEN slide to the second
~ = hold note
x = muffle string with finger on left hand (no note is heard)
N.C. = no chord is played over this section
* = spot where Liam sings "we know just what we are" towards the end
Intro
-----
G Em7 D
e---------------------------------------------------------------------------
B-10h12-10--10/8-7--8--7--8-------10----------------------------------------
G-11h12-11--11/9-7--9--7--9--9s11----11s9--7---9~b10.5r9p7----7--7----7--7--
D----------------------------------------------------------9-------9--------
A---------------------------------------------------------------------------
E---------------------------------------------------------------------------
G Em7 D
e----------------------------------------------------------------------------
B-10h12-10--10/8-7--8--7--8-------10-------------------------------------8-7-
G-11h12-11--11/9-7--9--7--9--9s11----11s9--7---9bbbbbb10.5-b10.5r9-7-7-7-----
D----------------------------------------------------------------------------
A----------------------------------------------------------------------------
E----------------------------------------------------------------------------
Verse
-----
G Em7 D
One way out is all you're ever gonna get
G Em7 D
From those who'll hand it out don't never let it upset you
G Em7 D
Cos they'll put words into our mouths, they're making us feel so
Pre-chorus
----------
Em G Em
ashamed Making us take the blame
e----------------------------------------------------------------
B----------------------------------------------------------------
G----------------------------------------------------------------
D---------------------------------------0h2h5--------------------
A---------------------------------0h2h5--------------------------
E-0----0----0-----2-----3---------------------0----0----0-----2--
G Em G
Making us cold in the night Making us quesion my
e------------------------------------------------------------
B------------------------------------------------------------
G------------------------------------------------------------
D-----------------0h2h5--------------------------------------
A-----------0h2h5--------------------------------------------
E-3---------------------0---0---0---2---3--------------------
A
heart and my soul and I think that it's not quite right
e----------------------------------------------------------------------
B----------------------------------------------------------------------
G-------------------------6~~~~~~~~~~~~~~~7~~~~~~~~~9~~~~--------------
D-7~~~~~~~~~~~~9~~~~~~~~~~x---------------x---------x-------------7--9-
A-x------------x----------4~~~~~~~~~~~~~~~5~~~~~~~~~7~~~~--/7--9-------
E-5~~~~~~~~~~~~7~~~~~~~~~~---------------------------------------------
e-----------------------
B-----------------------
G-7--9--9b10.5r9--7--7--
D-----------------------
A-----------------------
E-----------------------
Chorus
------
D F#5 G D/F# Em A
Hey, stay young and invincible cos we know just what we are
e---------------------------------------------------------------------
B---------------------------------------------------------------------
G------------------------------7---------7-----------------7---9b10.5-
D-------------------------7h9-------7h9---------------7h9-------------
A---------------------------------------------------------------------
E---------------------------------------------------------------------
D F#5 G D/F# Em A
Come what may, we're unstoppable cos we know just what we are
e----------------------------------------------------------------------
B----------------------------------------------------------------------
G-7----------------------7-------7---------7-----------------7--9b10.5-
D-------------------7h9-----7h9-------7h9---------------7h9------------
A----------------------------------------------------------------------
E----------------------------------------------------------------------
G D/F# Em A
We know just what we are
e---------------------------------------------
B---------------------------------------------
G-7-------7-------7-----------------7--9b10.5-
D----7h9-----7h9---------------7h9------------
A---------------------------------------------
E---------------------------------------------
G D/F# Em
Yeah we know just what we are
e-----------------------------------------------------
B--------------------------------------------10~~~----
G-7-------7-------7~~~~-----------------9s11~~~~~~----
D----7h9-----7h9--------------------------------------
A-----------------------------------------------------
E-----------------------------------------------------
Musical Interlude
-----------------
G Em7 D
e------------------------------------------------------------7----------------
B-10h12-10--10/8-7--8-7-8-------10--------------------------------------------
G-11h12-11--11/9-7--9-7-9--9s11----11s9--7------7---7-9b10.5--b10.5r9p7---7-7-
D-------------------------------------------7h9---9---------------------9-----
A-----------------------------------------------------------------------------
E-----------------------------------------------------------------------------
G Em7 D
e--------------------------------------------------------10-12b13.5r12-10-10-
B-10h12-10--10/8-7--8--7--8-------10---------------10-12---------------------
G-11h12-11--11/9-7--9--7--9--9s11----11s9--7--9s11---------------------------
D----------------------------------------------------------------------------
A----------------------------------------------------------------------------
E----------------------------------------------------------------------------
Verse (same as first time)
-----
Feed your head with all the things you need when you're hungry
Stay in bed and sleep all day as long as it's Sunday
Cos they'll put words into your mouth they're
Making you feel so ashamed
Pre-chorus (same as first time)
----------
Making us take the blame
Making us cold in the night
Making us question my heart and my soul
and I feel that it's not quite right
Chorus
------
Hey, stay young and invincible
Cos we know just what we are
Come what may, we're unstoppable
Cos we know just what we are
Solo
----
G Em7 D G
e---------------------------------------------------------------------------
B------------------------7-8-7-----10--8--7---------------------------------
G-9bbb10.5------9-----9---------7------------9-------7---9b10.5-----9b10.5--
D-----------------------------------------------7h9-------------------------
A---------------------------------------------------------------------------
E---------------------------------------------------------------------------
Em7 D Em G
e----------------------------------------------------------------------------
B------------------7-8-7-----10--8--7--------------------------------10/8--7-
G-b10.5r9~~~----9---------7------------9--7-------7-------7-------7--11/9--7-
D--------------------------------------------7h9-----7h9-----7h9-------------
A----------------------------------------------------------------------------
E----------------------------------------------------------------------------
Em G Em G
e-------------------------------------------------------------------
B-------------------------10/8--7---------------------------10/8--7-
G------7-------7-------7--11/9--7--------7-------7-------7--11/9--7-
D-7h9-----7h9-----7h9---------------7h9-----7h9-----7h9-------------
A-------------------------------------------------------------------
E-------------------------------------------------------------------
A A A G G G A A
e--------------------------------------------------------------------------
B--------------------------------------------------------------------------
G----------------------------------------11--11--11--12--12--12--12s14--14-
D-11--11--11--12--12--12--12s14--14--14------------------------------------
A--------------------------------------------------------------------------
E--------------------------------------------------------------------------
A D F#5
Hey, stay young and
e---------------------------------------------------
B-----12--12--12--12s14--14--14--14s15--------14----
G-14------------------------------------------------
D---------------------------------------------------
A---------------------------------------------------
E---------------------------------------------------
G D/F# Em A D F#5
invincible cos we know just what we are Come what may
e-----------------------------------------7------------------------------
B------------------------------------------------------------------------
G------7-------7--------7----------9b10.5--b10.5r9p7---7--9b10.5----6----
D-7h9-----7h9------7h9-------------------------------9-------------------
A------------------------------------------------------------------------
E------------------------------------------------------------------------
G D/F# Em A D F#5
we're unstoppable cos we know just what we are Hey, stay young
e-----------------------------------------------------------------
B-------------------------------------10/8-7----------------------
G-------7-------7--------7------------11/9-7------9b10.5----6-----
D--7h9-----7h9------7h9-----------------------7h9-----------------
A-----------------------------------------------------------------
E-----------------------------------------------------------------
G D/F# Em A D F#5
and invincible cos we know just what we are and Come what may
e--------------------------------------7--------7---------------------------
B---------------------------------------------------------------------------
G------7------7--------7--------9b10.5---9b10.5---9b10.5r9--9--------/6-----
D-7h9----7h9------7h9-------------------------------------------------------
A---------------------------------------------------------------------------
E---------------------------------------------------------------------------
G D/F# Em A D F#5
we're unstoppable cos we know just what we are
e----------------------------------------------------------------------------
B----------------------------------------------------------------------------
G-------7-------7--------7-------9b10.5r9--7-------7--9b10.5--9b10.5-b10.5r9-
D--7h9-----7h9------7h9-----------------------7h9----------------------------
A----------------------------------------------------------------------------
E----------------------------------------------------------------------------
G D/F# * Em A D F#5 G
e----------------------------------------------------------------------------
B----7-8-7-----10--8--7------------------------7h8--7--10--8--7-----10--8----
G-9---------7------------9-------7--9b10.5--7--------------------7---------7-
D---------------------------7h9----------------------------------------------
A----------------------------------------------------------------------------
E----------------------------------------------------------------------------
*
D/F# Em A D F#5 G D/F#
e----------------------------------------------------------------------------
B-10--8------10--8--7--------------------------------------------------------
G--------7-------------9----------------7-----------------7----------------7-
D--------------------------------7h8h9-------------7h8h9-------------7h8h9---
A--------------------------7h8h9-------------7h8h9-------------7h8h9---------
E----------------------------------------------------------------------------
* Em A D F#5 G D/F#
e-----------------------------------------------------------------------
B-----------------------------------------------------------------------
G-9--9b10.5r9--7--7-----------------7-----------------7--9b10.5r9--7--7-
D----------------------------7h8h9-------------7h8h9--------------------
A----------------------7h8h9-------------7h8h9--------------------------
E-----------------------------------------------------------------------
* Em A
e--------------7--------7--------7----------
B-------------------------------------------
G-7--9--9b10.5---9b10.5---9b10.5---9b10.5r9-
D-------------------------------------------
A-------------------------------------------
E-------------------------------------------
G D/F# * Em A
e------------------------------------------------
B-7-------7-------7-------7-------7--------------
G-9b10.5--9b10.5--9b10.5--9b10.5--9b10.5r9--7--7-
D------------------------------------------------
A------------------------------------------------
E------------------------------------------------
G D/F# * Em A
e------------------------------------------------
B-7-------7-------7-------7-------7--------------
G-9b10.5--9b10.5--9b10.5--9b10.5--9b10.5r9--7--7-
D------------------------------------------------
A------------------------------------------------
E------------------------------------------------
G D/F# * Em A
e------------------------------------------------
B-7-------7-------7-------7-------7--------------
G-9b10.5--9b10.5--9b10.5--9b10.5--9b10.5r9--7--7-
D------------------------------------------------
A------------------------------------------------
E------------------------------------------------
G D/F# * Em A
e------------------------------------------------
B-7-------7-------7-------7-------7--------------
G-9b10.5--9b10.5--9b10.5--9b10.5--9b10.5r9--7--7-
D------------------------------------------------
A------------------------------------------------
E------------------------------------------------
N.C.
e-------------------------------------------------------------------------
B-------7---10--------7---10--------7----10--8--7--8--7-----------7---10--
G---7h9-----------7h9-----------7h9---7------------------7----7h9------7--
D-------------------------------------------------------------------------
A-------------------------------------------------------------------------
E-------------------------------------------------------------------------
e----------------------------------------------------------------------------
B-----7---10--------7---10--10--8--7--8--10--8--7--8--7--7--7--7--7--7--7--7-
G-7h9------7----7h9------7---7--7--7--7---7--7--7--7--9--7--7--9--7--7--9--7-
D----------------------------------------------------------------------------
A----------------------------------------------------------------------------
E----------------------------------------------------------------------------
Questions, comments, corrections, requests to [email protected]




Ваше мнение



Капча