Slide Away- Bass Tab

Verse:

Slide away, and give it all you've got

G---------------------------------------------
D---------------------------------------------
A---------------------------------------------
E-5-5-5-5-5-5-5-3-3-3-3-3-3-3-3-3-3-1-1-1-1-1-

Pre-Chorus:

Slide in baby, together we'll fly, I've tried prayin' and I don't

G--------------------------------------------------------------------
D--------------------------------------------------------------------
A--------------------------------------------------------------------
E-3-3-3-1-1-1-1-3-3-3-3-3-3-3-1-1-1-1-3-3-3-3-3-1-1-1-1-1-1-1-3-3-3-3

know what you're saying to me

G------------------------------
D------------------------------
A------------------------------
E-3-3-3-3-3-3-3-3-3-3-3-3-3-3-3

Chorus:

Now that you're mine, we'll find a way, of chasin' the sun

G--------------------------------------------------------------------
D--------------------------------------------------------------------
A--------------3-3-3-3-3-3-3-3-3-3-----------------------------------
E-3-3-3-3-3-3-3--------------------3-3-3-3-3-3-3-3-3-3-3-3-1-1-1-1-1-

Let me be the one that shines with you,

G------------------------------------------------
D------------------------------------------------
A------------------------------------------------
E-1-1-1-1-1-1-5-5-5-5-5-5-5-5-5-5-3-3-3-3-3-3-3-3

in the morning when you don't know what to do

G--------------------------------------------------------
D--------------------------------------------------------
A------5-5-5-5-5-5-5-5-5-5-5-5-5-5-5-5-5-5---------------
E-3-3--------------------------------------1-1-1-1-1-1-1-

Two of a kind, we'll find a way to do what we've done

G-----------------------------------------------------------------
D-----------------------------------------------------------------
A---------3-3-3-3-3-3-3-3-3-3-------------------------------------
E-1-1-1-1---------------------3-3-3-3-3-3-3-3-3-3-3-1-1-1-1-1-1-1-

Let me be the one that shines with you,

G------------------------------------------------
D------------------------------------------------
A------------------------------------------------
E-1-1-1-1-1-1-5-5-5-5-5-5-5-5-5-5-3-3-3-3-3-3-3-3

And we can slide away,

G------------------------------
D------------------------------
A------------------------------
E-3-3-3-3-3-3-3-3-1-1-1-1-1-1-1

Slide away

G--------------------------
D--------------------------
A-5-5-5-5------------------
E---------1-1-1-1-1-1-1-1-1

Slide away

G--------------------------
D--------------------------
A-5-5-5-5------------------
E--------1-1-1-1-1-1-1-1-1-

Away

G--------------------------------------------
D--------------------------------------------
A-5-5-5-5-5----------------------------------
E-----------3-3-3-3-3-3-3-3-0-0-0-0-0-0-0-0-0

Slide Away Bass Tab by: HAFIS




Ваше мнение



Капча