Date: Wed, 2 Apr 1997 14:25:58 -0500 (EST)
From: Fred Lidskog
Subject: TAB: She's Electric by Oasis
She's Electric, written by Noel Gallagher, performed by Oasis
Song can be found on the album "(What's The Story) Morning Glory?".
This transcription was based on (but different from) the one found in the
"official" guitar book for the album "(WTS)MG?".
If this song isn't Beatles-esque, I don't know what is!
Chords used:
EADGBe
E (022100)
E2 (079997)
G# (466544)
C (x35553)
C#m (x46654)
A (x02220)
A2 (577655)
Amaj7 (x02120)
D (x57775)
B (x24442)
F#m7add4 (xx4200)
Intro
-----
starts with:
h=hammer on
e------2-----2-----2------
B--3-----3-----3-----3---- a bunch of times
G--2h4---2h4---2h4---2h4--
D-------------------------
until:
E G# C#m A2 E G# C#m A2 E G# C#m A2 C D E
[NOTE: During all of the verses in this song, whenever guitar 1 plays an
"A2", there is a second guitar that plays this little fill:
h=hammer on
D------2-------
A--2h4---4-2---
E--------------
and whenever, at the end of the verses, when guitar 1 plays an "E", guitar
2 plays an "E2".
Verse 1
-------
E G# C#m A2
She's electric
E G# C#m A2
She's in a family full of ecentrics
E G# C#m A2
She's done things I've never expected
C D E
and I need more time
Verse 2
-------
She's got a sister
And God only knows how I've missed her
And on the palm of her hand is a blister
And I need more time
Pre-chorus
----------
A Amaj7 A Amaj7
And I want you to know, I've got my mind made up now
A C#m E E7
But I need more time
A Amaj7 A Amaj7
And I want you to say, do you know what I'm saying
A C#m
But I need more....
Chorus
------
E
Cause I'll be you and you'll be me
E7
There's lots and lots for us to see
F#m7add4
There's lots and lots for us to do
B
She is electric, can I be electric too?
Solo
----
b = bend (7b8 means bend the string at the 7th fret to make the note the
string would make if played at the 8th fret with no bend)
r = release bend
E G# C#m A2 E G# C#m A2 E G#
e-------------------------------------9----------------------------------
B----------------------------------12---12-----12-12-12-10-9-12-12-12-12-
G--11b13---b13-b13r11-9---11-11b13---------11--13-13-13-11-9-13-13-13-13-
D------------------------------------------------------------------------
A------------------------------------------------------------------------
E------------------------------------------------------------------------
C#m A2 C D E
e--------------------------------------------------------
B--12-11-10-9-----------------------------10-9--9-10-9---
G--13-12-11-9-------11b13--b13r11-9-11-9--11-9--9-11-9---
D--------------------------------------------------------
A--------------------------------------------------------
E--------------------------------------------------------
Verse 3
-------
She's got a brother
We don't get on with one another
But I quite fancy her mother
And I think that she likes me
Verse 4
-------
She's got a cousin
In fact she's got 'bout a dozen
She's got one in the oven
But it's nothing to do with me
Pre-Chorus
----------
And I want you to know I've got my mind made up now
But I need more time
And I want you to say, do you know what I'm saying
But I need more
Chorus
------
Cause I'll be you and you'll be me
There lots and lots for us to see
There's lots and lots for us to do
B C D E
She is electric can I be electric, too can I be electric
C D E C D E
too can I be electric too
Song keeps going: C D E and ends with a slower C D E
Questions, comments, requests to [email protected]




Ваше мнение



Капча