Date: Wed, 10 Jul 1996 19:04:56 -0500 (CDT)
From: Patrick Glass

Shakermaker (Oasis)
by Patrick Glass

Opening riff:
slide
---------------------------------------0-------------------------------------
-------0------------0------------0-------0---------------0-----------0-------
-----2---2--------2---2--------2---2-------2-----------7---7-------7---7-----
---1-------1----1-------1----1-------1-------1-------6-------6---6-------6---
-2------------2------------2-----------------------7-----------7-------------
------------------------------------------------------------------------------
chords: A E B F#
----------------------------0----7---2---2-----
-------0-----------0--------2----9---4---2-----
-----2---2-------2---2------2----9---4---3-----
---1-------1---1-------1----2----9---4---4-----
-2-----------2--------------0----7---2---4-----
-----------------------------------------2-----
B
I'd like to be somebody else and not know where I've been
E B
I'd like to build myself a house out of plasticine
A E B
Aaaah, aaaaah, Shake along with me
A E B F#
Aaaah, aaaaah, Shake along with me
B
I've been driving in my car with my friend Mr. Soft
E B
Mr. Clean and Mr.Ben are living in my loft
A E B
Aaaah, aaaaah, Shake along with me
A E B F#
Aaaah, aaaaah, Shake along with me
(solo same chords as the verses)
D A B
I'm sorry but I just don't know
D A B
I know I said I told you so
D A B
But when you're happy and you're feeling fine
A E
Then you'll know that it's the right time
A E
Yeah, you know that it's the right time
(repeat the intro riff)
To shake along with me!
B
Mister Sifter sold me songs when I was just sixteen
E B
Now he stops at traffic lights but only when they're green
A E B
Aaaah, aaaaah, Shake along with me
A E B F#
Aaaah, aaaaah, Shake along with me
A E
Aaaah, aaaaah
(intro riff without the slide until the very end)
Shake along with me (X a whole bunch)
[email protected]*************************Patrick*Glass*******************
"There's a place where the strange ones go where nobody else can know.
They look down from the underground at everyone down below." -Supergrass
*************************http://www.spy.net/~patrick***************************




Ваше мнение



Капча