oasis-shakermaker intro.
Tabbed by Luke.

E---------------------------------------------------
A---2-----------2-----------2-----------------------
D-----1-------1---1-------1---1-------1-------1-----
G-------2---2-------2---2-------2---2-------2-------
B---------0-----------0-----------0-------0---------
e---------------------------------------0-----------

then

E---------------------------------------------------
A--7-----------7---------------2-----------2----------
D----6-------6---6-------6-------1-------1---1-------1
G------7---7-------7---7-----------2---2-------2---2--
B--------0-----------0---------------0-----------0----
e-----------------------------------------------------




Ваше мнение



Капча