Sad Song
Oasis
Chords used:
Am (x02210)
F (x33211)
Fmaj7 (x33210)
D (xx0232)
Dsus2 (xx0230)
E (022100)
Esus4 (022200)
G (3x0033)
C (x32010)
C/B (x2x010)
Tab for intro:
s=slide
e-----0---0-0-0-0-0-0-- ---0-0---0-0---0-0---0-0---0-3-3-0-0---------
B-----1s3-3-1-1-1-1-1-- play ---1-1---1-1---1-1---1-1---1-1-1-1-1---------
G-----0---0-0-0-0-0-0-- three ---0-0---0-0---0-0---0-0---0-0-0-0-0---------
D-----2s4-4-2-2-2-2-2-- times, ---2-2-0-0-0---x-x---x-x---2-2-2-2-2---------
A--0--0---0-0-0-0-3-3-- then: -0-----------3-3-3-2-2-2-0-0-0-0-0-0---------
E---------------------- --------------------------------------------
Verse 1
-------
Am Fmaj7
Sing a sad song, in a lonely place
Dsus2 E G
and try to put a word in for me
Am Fmaj7
It's been so long, since I found a space
Dsus2 E G
you better put in two or three
Am Fmaj7
We as people are just walking 'round
Dsus2 E G
Our heads are firmly fixed in the ground
Am Fmaj7
What we don't see, well it can't be real
Dsus2 E G
What we don't touch we cannot feel
Chorus
------
[NOTE: Each chord in the chorus is played by first picking the lowest
note in each chord, and then strumming the chord a few times.]
C C/B
Where we're living in this town
Am F
The sun is coming up and it's going down
C G D Dsus4 D
But it's all just the same at the end of the day
e--2-2-2--3-3-3--2-2------
B--3-3-3--3-3-3--3-3------
(tab for little riff): G--2-2-2--2-2-2--2-2------
D--0-0-0--0-0-0--0-0------
A-------------------------
E-------------------------
C C/B
And we cheat and we lie
Am F
Nobody says it's wrong so we don't ask why
C G D Dsus4 D
Cause it all stays the same at the end of the day
Fmaj7 C
Throwing it all away
Fmaj7 C
Throwing it all away
Fmaj7 C
Throwing it all away
E
at the end of the day
Musical interlude
-----------------
[play INTRO again]
Verse 2
-------
[use same chords as VERSE 1]
If you're needing something I can give
You know I'd help you if I can
If you're honest and you say that you did
You know that I would give you my hand
Or a sad song in a lonely place
I'll try to put a word in for you
Need a shoulder-well if that's the case
You know there's nothing I wouldn't do
Chorus
------
Where we're living in this town
The sun is coming up and it's going down
But it's all just the same at the end of the day
And we cheat and we lie
Nobody says it's wrong so we don't ask why
Cause it's all just the same at the end of the day
So don't throw it all away
Don't throw it all away
Don't throw it all away
Don't throw it all away
Hey hey
[play below riff for a few measure before lyrics come in]
You're throwing it all away throwing it all away
e------------------0--0--0--0--0--0----------0--0--0---0--0--0------
B------------------1--0--1--1--0--1----------1--0--1---1--0--1------
G------------------2--2--2--0--0--0----------2--2--2---0--0--0------
D------------------3--3--3--2--2--2----------3--3--3---2--2--2------ (repeat)
A------------------3--3--3--3--3--3----------3--3--3---3--3--3------
E-------------------------------------------------------------------
Throwing it all a-way throwing it all away
e------------3--3--3--0----0--0--0----------3--3--3--0---0--0--0---------
B------------1--1--1--1----1--0--1----------1--1--1--1---1--0--1---------
G------------2--2--2--2----0--0--0----------2--2--2--2---0--0--0---------
D------------3--3--3--3----2--2--2----------3--3--3--3---2--2--2---------
A--------------------------3--3--3-----------------------3--3--3---------
E------------------------------------------------------------------------
Esus4 E
At the end of the daaaaay-haaaay Whoops!
Outro
-----
[same as INTRO]




Ваше мнение



Капча