From: littleboodle [email protected]

Tabbed by Jess Penther

Verse
------------------
------------------
------------------
--6---------------
--6---------------
--4---------------

Bridge

---------------------------
---------------------------
---------------------------
9-------7------6------4----
9-------7------6------4----
7-------5------4------2----

Chorus

------------------
------------------
----------2-------
--2---4---2-------
--2---4-----------
--0---2-----------

These are the basic chords... there are many other versions around online with the lead
Parts but the chords never sound right so this is what i think they are.
Rock On. :)

Lyrics-

Verse 1-
I can give a hundred million reasons
To build a barricade
I blame it on the changing of the seasons
The thoughts that I've conveyed

Bridge-
Does it make it all right?
It doesn't make it all right

Chorus-
To roll it over my soul and leave me here
Roll it over my soul and leave me here

Verse 2-
Look around at all the plastic people
Who live without a care
Try to sit with me around my table
But never bring a chair

Bridge-
Does it make it all right?
It doesn't make it all right

Chorus-
To roll it over my soul and leave me here
Roll it over my soul and leave me here (x2)




Ваше мнение



Капча