t. See http://www.olga.net/faq/ for more information. #
Date: Sun, 9 Apr 2000 08:16:12 -0400
From: [email protected]
Subject: o/oasis/put_yer_money_where_yer_mouth_is.tab
"PUT YER MONEY WHERE YER MOUTH IS" BY OASIS
FROM THE ALBUM "STANDING ON THE SHOULDER OF GIANTS"(2000)
---------------------------------------------------------
TABBED BY [email protected]
INTRO and VERSE 1:
A strange noise starts and lasts until the end of the song,
I tried to tab it:
-------------
-------------
-------------
---6~~~~~----
-------------
-------------
Another note is played throughout the whole song:
---11--11--11--- etc...
----------------
----------------
----------------
----------------
----------------
VERSE RIFF:
Eb5 F#5 Ab5 F#5
----------------------
----------------------
---------------------- repeat
--1----4---6---4------
--1----4---6---4------
-------2---4---2------
VERSE2:
guitar1 plays the VERSE RIFF:
Eb5 F#5 Ab5 F#5
----------------------
----------------------
---------------------- repeat
--1----4---6---4------
--1----4---6---4------
-------2---4---2------
guitar2 plays this fill:
let ring + fat distortion
----------------------------------------------
----------------------------------------------
----------------------------------------------
----------4---6--6--6b7r6--4--6--4--(x2)------
--6--6--6---6----------------------------6~~--
----------------------------------------------
guitar3 plays this fill but not all the time:
let ring + fat distortion
-------9-------------------
--9s11---11s---------------
--------------6--6h8--6s8--=20
---------------------------
---------------------------=20
---------------------------
CHORUS:
let ring + fat distortion
-------9-------------------
--9s11---11s---------------
--------------6--6h8--6s8-- (x5)
---------------------------
---------------------------=20
---------------------------
another guitar plays these chords:
---------------------------
---------------------------
--6--8--6--8-----6--8--5---
--6--8--6--8--4--8--6--5---
--4--6--4--6--4--6--4--3---
--------------2------------
VERSE3:
guitar1:
------------------------------------------
------------------------------------------
------------------x2----------5-------x2--
--1----4---6---4------1---4---5---4-------
--1----4---6---4------1---4---3---4-------
-------2---4---2----------2-------2-------
VERSE RIFF:
Eb5 F#5 Ab5 F#5
----------------------
----------------------
---------------------- repeat
--1----4---6---4------
--1----4---6---4------
-------2---4---2------
guitar2:played along
let ring + fat distortion
-------------------------------------
-------------------------------------
-------------------------------------
----------4---6--6--6b7r6--4--6--4---
--6--6--6---6------------------------
-------------------------------------
guitar3 plays this fill but not all the time:
let ring + fat distortion
-------9-------------------
--9s11---11s---------------
--------------6--6h8--6s8--=20
---------------------------
---------------------------=20
---------------------------
CHORUS
let ring + fat distortion
-------9-------------------
--9s11---11s---------------
--------------6--6h8--6s8-- (x5)
---------------------------
---------------------------=20
---------------------------
another guitar plays these chords:
---------------------------
---------------------------
--6--8--6--8-----6--8--5---
--6--8--6--8--4--8--6--5---
--4--6--4--6--4--6--4--3---
--------------2------------
OUTRO:
guitar1:
VERSE RIFF:
Eb5 F#5 Ab5 F#5
----------------------
----------------------
---------------------- repeat
--1----4---6---4------
--1----4---6---4------
-------2---4---2------
and just before the end,guitar1 plays these chords:
------------------
------------------
----------5------- (x2)
--1---4---5---4---
--1---4---3---4---
------2-------2---
guitar2:played along
let ring + fat distortion
-------------------------------------
-------------------------------------
-------------------------------------
----------4---6--6--6b7r6--4--6--4---
--6--6--6---6------------------------
-------------------------------------
The song ends on a real mess with lots of strange noises...
ENJOY!!!!!!




Ваше мнение



Капча