My sister lover by oasis
can be found on the stand by me single

({Chords used})
Em 0 2 2 0 0 0
B7 x 2 4 2 4 2
Am x 0 2 2 1 0
C x 3 2 0 1 0
G 3 2 0 0 3 3

({Verse 1})
Em B7 Em B7
I'm feeling sleepy deep inside, Your heart is sold I'll never find
Em B7 Em B7
Today I think I'll waste my time, You never notice you are blind

({Verse 2})
Em B7 Em B7
The dream I have can never be, To photograph but I can't see
Em B7 Em B7
I fight to live another day, I live to find out come what may

({Bridge})
Am Em Am Em
Faith in our love is something I could never have, Thinking my sister's gonna set me free
Am Em Am B7
Faith in our love is something I will never have, cos the lover I know don't got no faith in me

({Chorus})
|Em C|G B7|
You're my lover
|Em C|G B7|
You're my lover
|Em C|G B7|
You're my lover
|Em C|G B7|
You're my lover

({Verse 3})
Em B7 Em B7
She gives me life when the sun goes down, She gives me strength so I don't drown
Em B7 Em B7
She gives me hope and destiny ,She gives me air that I can breathe

({Bridge})
Am Em Am Em
Faith in our love is something I could never have, Thinking my sister's gonna set me free
Am Em Am B7
Faith in our love is something I will never have, cos the lover I know don't got no faith in me

({Chorus})
|Em C|G B7|
You're my lover
|Em C|G B7|
You're my lover
|Em C|G B7|
You're my lover
|Em C|G B7|
You're my lover

(Solo)
Em C G B7 Em C G B7
e-----------------------------------------------------------------------------------------|
B-----------------------------------------------------------------------------------------|
G---------------------------------9-9--7-------------------------------------9-9--7-------|
D-----------5h7--7b8--5-7-5---------------7--------------5h7--7b8--5-7-5------------7-----|
A--5--5h7--------------------7-----------------5--5h7-------------------7-----------------|
E-----------------------------------------------------------------------------------------|
Em C G B7 Em C
e--------------------------------------------------------12-------------------------------|
B---10b11--10b11--10---10h11-10-10h11-10-9-8---8---10-11--------10-10b11-11-11-10---------|
G--------------------------------------------9---9----------------------------------------|
D-----------------------------------------------------------------------------------------|
A-----------------------------------------------------------------------------------------|
E-----------------------------------------------------------------------------------------|
G B7
e------------------|
B--11-10-8---8-8---|
G----------9-----9-|
D------------------|
A------------------|
E------------------|

({Bridge})
Am Em Am Em
Faith in our love is something I could never have, Thinking my sister's gonna set me free
Am Em Am B7
Faith in our love is something I will never have, cos the lover I know don't got no faith in me

({Chorus})
|Em C|G B7|
You're my lover
|Em C|G B7|
You're my lover
|Em C|G B7|
You're my lover
|Em C|G B7|
You're my lover




Ваше мнение



Капча