Little by little - Heaten chemistry
written by Noel Gallagher

Intro: G D/f# E- A E- A

Verse : E- A
We the people fight for our exsistence
E- A
We don't claim to be perfect but we're free
E- A
We dream our dreams alone with no resistance
E- A
Fading like the stars we wished to be

Bridge: D A
You know what it mean, what i just say
G D/F# E- A
But my girl wakes up on the wrong side of his bed and it just don't matter now

Chorus: G D A E- D/F# G
Little by little I'll give you everything you ever dreamed of
D A E- D/F# G
Llttle by little the will of your life will slowly falling on
D A E- D/F# G
Little by little You'll have to give it all in all your Life
D C G A
And all the time I just ask myself why you're really here

Verse
Bridge
Chorus

Solo: A G D A G D
e-----------------------------------------------------------------------|
B------------------------0-0-------------------------------0-0----------|
G-------6-7b9-6----------0-0-7-7----------6-7b9-6----------0-0-7-7------|
D--7-7----------7-5-5-7------7-7-----7-7----------7-5-5-7------7-7------|
A-----------------------------------------------------------------------|
E-----------------------------------------------------------------------|
D A D
e-----------------------------------------------------------------------|
B--------------------------7-8-9---------------------------10-10b12-10--|
G--7--7--7-5h7--7--7-5h7-7--------5h7--7--7-5h7--7--7-------------------|
D-----------------------------------------------------------------------|
A-----------------------------------------------------------------------|
E-----------------------------------------------------------------------|

repeat chorus ad libidum to fade

The lyrics are incorrect because I'm Italian and I tabbed this before the record was available
in stores. In the end there are some fills similar to the last part of the solo. Enjoy!
Send any comments or opinions to [email protected]




Ваше мнение



Капча