Date: Wed, 2 Apr 1997 14:31:04 -0500 (EST)
From: Fred Lidskog
Subject: TAB: I Will Believe (Live) by Oasis
I Will Believe (live), written by Noel Gallagher, performed by Oasis.
Song can be found on the UK "Supersonic" single.
Chords used:
EADGBe
Fmaj7 (x33210)
TAB KEY:
b = bend (9b10 means bend the string at the 9th fret to make the note the
string would make if played at the 10th fret with no bend)
r = release bend
s = slide
/ = a slower slide, taking up 2 beats
h = hammer on
Intro:
e--2--------0-------------------------0-----------------2--------3--2-------
B-----3--------2-----3--5/7--5--3--------2-----3-----------3-----------3----
G--------2--------2----------------2--------2-----0-----------2-----------2-
D----------------------------------------------------0----------------------
A---------------------------------------------------------------------------
E---------------------------------------------------------------------------
Drums come in:
e--2--------0--------------------------------------------------
B-----3--------2-----3--5/7--5--3---------------3---------3----
G--------2--------2----------------2--------2--------0---------
D--------------------------------------0-----------------------
A--------------------------------------------------------------
E--------------------------------------------------------------
The rest of the band comes in:
e---------------------------------------------------------------------
B---------------------------------------------------------------------
G-------7-----7-----7--9b10.5--9b10.5--9--7---------7--9b10.5r9--7--7-
D--7h9-----9-----9-----------------------------7h9--------------------
A---------------------------------------------------------------------
E---------------------------------------------------------------------
e------------------------------------------7--------------------------
B-8--8--8--7-------------------------------------------------------10-
G-7--7--7--7--------7-----7-----7--9b10.5-----9--7--9--7--9--9s11-----
D--------------7h9-----9-----9----------------------------------------
A---------------------------------------------------------------------
E---------------------------------------------------------------------
e--------------------------
B--8--8--7----8--8--8--7---
G--9--9--7----7--7--7--7---
D--------------------------
A--------------------------
E--------------------------
Verse 1
-------
D A G D
I'm Locked up in chains for the rest of my life
A G D
There's no else to blame but me
D A G D
The start of the day's just the end of the night
A G D
I'm feeling like I'm lost at sea
Pre-chorus
----------
A G D
Sometimes it just seems so simple
A G D
I'm feeling like a dog on my knees
A G D
Sometimes like a man in the middle
Em G A
I don't know my own mind, won't you let me be
Chorus
------
D C
'Cause I can find you, living in my world
A D
Dragging me 'round just like a dog on a lead
Fmaj7 G
But when I find my own piece of mind, I...
E A
I will believe
Musical Interlude
-----------------
D A G D A G D
e----------------------------------------------------------------------
B----------------------------------------------------------------------
G-------7-----7-----7--9b10.5--9b10.5--9--7---------7--9b10.5r9--7--7--
D--7h9-----9-----9-----------------------------7h9---------------------
A----------------------------------------------------------------------
E----------------------------------------------------------------------
D A G D A G D
e--------------------------------------------------------------------------
B-8--8--8--7-----------------------------10-------------8s10--10--8--8--7--
G-7--7--7--7--------7-----7-----7--9s11------11--9--7---9s11--11--9--9--7--
D--------------7h9-----9-----9---------------------------------------------
A--------------------------------------------------------------------------
E--------------------------------------------------------------------------
e--------------------------------------------------------------------
B--8------7----------------------------------------------------------
G--7------7----------------------------------------------------------
D----7h9-------------------------------------------------------------
A--------------------------------------------------------------------
E--------------------------------------------------------------------
[REPEAT 1st VERSE, PRE-CHORUS and CHORUS]
Guitar Solo
-----------
D C A D
e-----------------------------------------------------------------------------
B---------------------------------------------------------10--8--8--7---------
G---9b10.5r9--7--7-------7--9b10.5--b10.5--9--7--9--9s11------9--9--7---------
D-------------------7h9-----------------------------------------------9-7-9-7-
A-----------------------------------------------------------------------------
E-----------------------------------------------------------------------------
Fmaj7 G E A
e----------------------------------------------------------------------------
B----------------------------------------------10-----10--9--10--10--8--8--7-
G-9b10--9--7---------7--9b10--9--7------7---9------9------9---9---9--9--9--7-
D-------------7--7h9----------------7h9--------------------------------------
A----------------------------------------------------------------------------
E----------------------------------------------------------------------------
D C A D
e-----------------------------------------------------------------------
B-7--7--8-7-8-7--------------------------10---------------7--8-7-8-7----
G-7--7--7-7-7-7--9b10--9--7------7-9s11------11--9--7--7--7--7-7-7-7----
D----------------------------7h9----------------------------------------
A-----------------------------------------------------------------------
E-----------------------------------------------------------------------
Fmaj7 G E A
e----------------------------------------------------------------------------
B----------------------------------------------10-----10--9--10--10--8--8--7-
G-9b10--9--7---------7--9b10--9--7------7---9------9------9---9---9--9--9--7-
D-------------7--7h9----------------7h9--------------------------------------
A----------------------------------------------------------------------------
E----------------------------------------------------------------------------
D C A D
e--------------------------------------------------------------------
B-7--7--8-7-8-7---5--5--6-5-6-5---2--2--3-2-3-2----------------------
G-7--7--7-7-7-7---5--5--5-5-5-5---2--2--2-2-2-2----9b10.5r9--7--7----
D--------------------------------------------------------------------
A--------------------------------------------------------------------
E--------------------------------------------------------------------
Fmaj7 G E A
e----------------------------------------------------------------------------
B----------------------------------------------10-----10--9--10--10--8--8--7-
G-9b10--9--7---------7--9b10--9--7------7---9------9------9---9---9--9--9--7-
D-------------7--7h9----------------7h9--------------------------------------
A----------------------------------------------------------------------------
E----------------------------------------------------------------------------
D A G D A G D
e--2--------0-------------------------0-----------------2--3--2-------
B-----3--------2-----3--5/7--5--3--------2-----3----------------------
G--------2--------2----------------2--------2-----0-------------------
D----------------------------------------------------0----------------
A---------------------------------------------------------------------
E---------------------------------------------------------------------
Questions, comments, corrections, requests to [email protected]




Ваше мнение



Капча