Oasis
I Can See A Liar

Intro:
e|--------------------------------------------------------------
B|--------------------------------------------------------------
G|--777-5-7-----777-5-7----------|---3x----|--------------------
D|--777-5-5-----777-5-7--5-------5-5-3---3-5----7---------------
A|--555-3-5-----555-3-5--5-------5-5-3---3-5----5-let ring------
E|-----------------------3-------3-3-1-0-1-3----5---------------

Pre-Chorus:
e|---------------------------------------------------------
B|---------------------------------------------------------
G|--3-3-3-3--5-5-5-5--7-5--3-3-3-3-2-2-2-2-555555----------
D|--3-3-3-3--5-5-5-5--7-5--3-3-3-3-2-2-2-2-555555----------
A|--1-1-1-1--3-3-3-3--5-3--1-1-1-1-0-0-0-0-333333----------
E|---------------------------------------------------------
Verse:
e|----------------------------------------------------
B|----------------------------------------------------
G|----------------------------------------------------
D|-----7-777---------7-777-----5-555-----5------------
A|--5--5-555-----4-4-4-444-----3-3-333-2-2-2-2-3-4----
E|----------------------------------------------------
Baby the time is right...

Chorus:
e|---------------------------------------
B|---------------------------------------
G|----7-7--5-5-5-7-----------------------
D|----7-7--5-5-5-7-------5-5-3---3-5-----
A|----5-5--3-2-3-5-------5-5-3---3-5-----
E|-----------------------3-3-1-0-1-3-----
I can see a liar...

Gtr. Solo - played with Wah-Wah:
play this a few times
e|-------------------------------
B|-------------------------------
G|---12b13-12-10-----------------
D|---------------12~-------------
A|-------------------------------
E|-------------------------------




Ваше мнение



Капча